  0
SECTION
  2
HEADER
  9
$ACADVER
  1
AC1015
  9
$ACADMAINTVER
 70
     6
  9
$DWGCODEPAGE
  3
ANSI_1254
  9
$INSBASE
 10
0.0
 20
0.0
 30
0.0
  9
$EXTMIN
 10
0.0
 20
0.0
 30
0.0
  9
$EXTMAX
 10
279.4
 20
215.9
 30
0.0
  9
$LIMMIN
 10
0.0
 20
0.0
  9
$LIMMAX
 10
279.4
 20
215.9
  9
$ORTHOMODE
 70
     0
  9
$REGENMODE
 70
     1
  9
$FILLMODE
 70
     1
  9
$QTEXTMODE
 70
     0
  9
$MIRRTEXT
 70
     1
  9
$LTSCALE
 40
1.0
  9
$ATTMODE
 70
     1
  9
$TEXTSIZE
 40
3.5
  9
$TRACEWID
 40
1.0
  9
$TEXTSTYLE
  7
Standard
  9
$CLAYER
  8
0
  9
$CELTYPE
  6
ByLayer
  9
$CECOLOR
 62
   256
  9
$CELTSCALE
 40
1.0
  9
$DISPSILH
 70
     0
  9
$DIMSCALE
 40
1.0
  9
$DIMASZ
 40
3.5
  9
$DIMEXO
 40
1.0
  9
$DIMDLI
 40
3.75
  9
$DIMRND
 40
0.0
  9
$DIMDLE
 40
0.0
  9
$DIMEXE
 40
1.0
  9
$DIMTP
 40
0.0
  9
$DIMTM
 40
0.0
  9
$DIMTXT
 40
3.5
  9
$DIMCEN
 40
2.5
  9
$DIMTSZ
 40
0.0
  9
$DIMTOL
 70
     0
  9
$DIMLIM
 70
     0
  9
$DIMTIH
 70
     1
  9
$DIMTOH
 70
     1
  9
$DIMSE1
 70
     0
  9
$DIMSE2
 70
     0
  9
$DIMTAD
 70
     1
  9
$DIMZIN
 70
     0
  9
$DIMBLK
  1

  9
$DIMASO
 70
     1
  9
$DIMSHO
 70
     1
  9
$DIMPOST
  1

  9
$DIMAPOST
  1

  9
$DIMALT
 70
     0
  9
$DIMALTD
 70
     3
  9
$DIMALTF
 40
0.0393700787
  9
$DIMLFAC
 40
1.0
  9
$DIMTOFL
 70
     1
  9
$DIMTVP
 40
0.0
  9
$DIMTIX
 70
     0
  9
$DIMSOXD
 70
     0
  9
$DIMSAH
 70
     0
  9
$DIMBLK1
  1

  9
$DIMBLK2
  1

  9
$DIMSTYLE
  2
ISO-25
  9
$DIMCLRD
 70
     0
  9
$DIMCLRE
 70
     0
  9
$DIMCLRT
 70
     0
  9
$DIMTFAC
 40
1.0
  9
$DIMGAP
 40
1.524
  9
$DIMJUST
 70
     0
  9
$DIMSD1
 70
     0
  9
$DIMSD2
 70
     0
  9
$DIMTOLJ
 70
     0
  9
$DIMTZIN
 70
     0
  9
$DIMALTZ
 70
     0
  9
$DIMALTTZ
 70
     0
  9
$DIMUPT
 70
     0
  9
$DIMDEC
 70
     2
  9
$DIMTDEC
 70
     2
  9
$DIMALTU
 70
     2
  9
$DIMALTTD
 70
     3
  9
$DIMTXSTY
  7
Standard
  9
$DIMAUNIT
 70
     0
  9
$DIMADEC
 70
     2
  9
$DIMALTRND
 40
0.0
  9
$DIMAZIN
 70
     0
  9
$DIMDSEP
 70
    44
  9
$DIMATFIT
 70
     3
  9
$DIMFRAC
 70
     0
  9
$DIMLDRBLK
  1

  9
$DIMLUNIT
 70
     2
  9
$DIMLWD
 70
    -2
  9
$DIMLWE
 70
    -2
  9
$DIMTMOVE
 70
     0
  9
$LUNITS
 70
     2
  9
$LUPREC
 70
     2
  9
$SKETCHINC
 40
1.0
  9
$FILLETRAD
 40
10.0
  9
$AUNITS
 70
     0
  9
$AUPREC
 70
     2
  9
$MENU
  1
.
  9
$ELEVATION
 40
0.0
  9
$PELEVATION
 40
0.0
  9
$THICKNESS
 40
0.0
  9
$LIMCHECK
 70
     0
  9
$CHAMFERA
 40
0.0
  9
$CHAMFERB
 40
0.0
  9
$CHAMFERC
 40
0.0
  9
$CHAMFERD
 40
0.0
  9
$SKPOLY
 70
     0
  9
$TDCREATE
 40
2459741.588625197
  9
$TDUCREATE
 40
2459741.463625197
  9
$TDUPDATE
 40
2459741.588626898
  9
$TDUUPDATE
 40
2459741.463626898
  9
$TDINDWG
 40
0.0000000116
  9
$TDUSRTIMER
 40
0.0000000116
  9
$USRTIMER
 70
     1
  9
$ANGBASE
 50
0.0
  9
$ANGDIR
 70
     0
  9
$PDMODE
 70
     0
  9
$PDSIZE
 40
-1.0
  9
$PLINEWID
 40
0.0
  9
$SPLFRAME
 70
     0
  9
$SPLINETYPE
 70
     6
  9
$SPLINESEGS
 70
     8
  9
$HANDSEED
  5
121
  9
$SURFTAB1
 70
     6
  9
$SURFTAB2
 70
     6
  9
$SURFTYPE
 70
     6
  9
$SURFU
 70
     6
  9
$SURFV
 70
     6
  9
$UCSBASE
  2

  9
$UCSNAME
  2

  9
$UCSORG
 10
0.0
 20
0.0
 30
0.0
  9
$UCSXDIR
 10
1.0
 20
0.0
 30
0.0
  9
$UCSYDIR
 10
0.0
 20
1.0
 30
0.0
  9
$UCSORTHOREF
  2

  9
$UCSORTHOVIEW
 70
     0
  9
$UCSORGTOP
 10
0.0
 20
0.0
 30
0.0
  9
$UCSORGBOTTOM
 10
0.0
 20
0.0
 30
0.0
  9
$UCSORGLEFT
 10
0.0
 20
0.0
 30
0.0
  9
$UCSORGRIGHT
 10
0.0
 20
0.0
 30
0.0
  9
$UCSORGFRONT
 10
0.0
 20
0.0
 30
0.0
  9
$UCSORGBACK
 10
0.0
 20
0.0
 30
0.0
  9
$PUCSBASE
  2

  9
$PUCSNAME
  2

  9
$PUCSORG
 10
0.0
 20
0.0
 30
0.0
  9
$PUCSXDIR
 10
1.0
 20
0.0
 30
0.0
  9
$PUCSYDIR
 10
0.0
 20
1.0
 30
0.0
  9
$PUCSORTHOREF
  2

  9
$PUCSORTHOVIEW
 70
     0
  9
$PUCSORGTOP
 10
0.0
 20
0.0
 30
0.0
  9
$PUCSORGBOTTOM
 10
0.0
 20
0.0
 30
0.0
  9
$PUCSORGLEFT
 10
0.0
 20
0.0
 30
0.0
  9
$PUCSORGRIGHT
 10
0.0
 20
0.0
 30
0.0
  9
$PUCSORGFRONT
 10
0.0
 20
0.0
 30
0.0
  9
$PUCSORGBACK
 10
0.0
 20
0.0
 30
0.0
  9
$USERI1
 70
     0
  9
$USERI2
 70
     0
  9
$USERI3
 70
     0
  9
$USERI4
 70
     0
  9
$USERI5
 70
     0
  9
$USERR1
 40
0.0
  9
$USERR2
 40
0.0
  9
$USERR3
 40
0.0
  9
$USERR4
 40
0.0
  9
$USERR5
 40
0.0
  9
$WORLDVIEW
 70
     1
  9
$SHADEDGE
 70
     3
  9
$SHADEDIF
 70
    70
  9
$TILEMODE
 70
     1
  9
$MAXACTVP
 70
    64
  9
$PINSBASE
 10
0.0
 20
0.0
 30
0.0
  9
$PLIMCHECK
 70
     0
  9
$PEXTMIN
 10
1.0000000000E+20
 20
1.0000000000E+20
 30
1.0000000000E+20
  9
$PEXTMAX
 10
-1.0000000000E+20
 20
-1.0000000000E+20
 30
-1.0000000000E+20
  9
$PLIMMIN
 10
0.0
 20
0.0
  9
$PLIMMAX
 10
420.0
 20
297.0
  9
$UNITMODE
 70
     0
  9
$VISRETAIN
 70
     1
  9
$PLINEGEN
 70
     0
  9
$PSLTSCALE
 70
     1
  9
$TREEDEPTH
 70
  3020
  9
$CMLSTYLE
  2
Standard
  9
$CMLJUST
 70
     0
  9
$CMLSCALE
 40
20.0
  9
$PROXYGRAPHICS
 70
     1
  9
$MEASUREMENT
 70
     1
  9
$CELWEIGHT
370
    -1
  9
$ENDCAPS
280
     0
  9
$JOINSTYLE
280
     0
  9
$LWDISPLAY
290
     1
  9
$INSUNITS
 70
     4
  9
$HYPERLINKBASE
  1

  9
$STYLESHEET
  1

  9
$XEDIT
290
     1
  9
$CEPSNTYPE
380
     0
  9
$PSTYLEMODE
290
     1
  9
$FINGERPRINTGUID
  2
{543eeae0-b74d-428b-abc6-baba843837b8}
  9
$VERSIONGUID
  2
{FAEB1C32-E019-11D5-929B-00C0DF256EC4}
  9
$EXTNAMES
290
     1
  9
$PSVPSCALE
 40
0.0
  9
$OLESTARTUP
290
     0
  0
ENDSEC
  0
SECTION
  2
CLASSES
  0
CLASS
  1
ACDBDICTIONARYWDFLT
  2
AcDbDictionaryWithDefault
  3
ObjectDBX Classes
 90
        0
280
     0
281
     0
  0
CLASS
  1
VISUALSTYLE
  2
AcDbVisualStyle
  3
ObjectDBX Classes
 90
     4095
280
     0
281
     0
  0
CLASS
  1
MATERIAL
  2
AcDbMaterial
  3
ObjectDBX Classes
 90
     1153
280
     0
281
     0
  0
CLASS
  1
SCALE
  2
AcDbScale
  3
ObjectDBX Classes
 90
     1153
280
     0
281
     0
  0
CLASS
  1
TABLESTYLE
  2
AcDbTableStyle
  3
ObjectDBX Classes
 90
     4095
280
     0
281
     0
  0
CLASS
  1
MLEADERSTYLE
  2
AcDbMLeaderStyle
  3
ACDB_MLEADERSTYLE_CLASS
 90
     4095
280
     0
281
     0
  0
CLASS
  1
SUN
  2
AcDbSun
  3
SCENEOE
 90
     1153
280
     0
281
     0
  0
CLASS
  1
ACDBPLACEHOLDER
  2
AcDbPlaceHolder
  3
ObjectDBX Classes
 90
        0
280
     0
281
     0
  0
CLASS
  1
LAYOUT
  2
AcDbLayout
  3
ObjectDBX Classes
 90
        0
280
     0
281
     0
  0
ENDSEC
  0
SECTION
  2
TABLES
  0
TABLE
  2
VPORT
  5
8
330
0
100
AcDbSymbolTable
 70
     1
  0
VPORT
  5
29
330
8
100
AcDbSymbolTableRecord
100
AcDbViewportTableRecord
  2
*Active
 70
     0
 10
0.0
 20
0.0
 11
1.0
 21
1.0
 12
139.7
 22
107.95
 13
0.0
 23
0.0
 14
10.0
 24
10.0
 15
10.0
 25
10.0
 16
0.0
 26
0.0
 36
1.0
 17
0.0
 27
0.0
 37
0.0
 40
215.9
 41
1.2941176471
 42
50.0
 43
0.0
 44
0.0
 50
0.0
 51
0.0
 71
     0
 72
  2000
 73
     1
 74
     3
 75
     0
 76
     0
 77
     0
 78
     0
281
     0
 65
     1
110
0.0
120
0.0
130
0.0
111
1.0
121
0.0
131
0.0
112
0.0
122
1.0
132
0.0
 79
     0
146
0.0
  0
ENDTAB
  0
TABLE
  2
LTYPE
  5
5
330
0
100
AcDbSymbolTable
 70
     6
  0
LTYPE
  5
14
330
5
100
AcDbSymbolTableRecord
100
AcDbLinetypeTableRecord
  2
ByBlock
 70
     0
  3

 72
    65
 73
     0
 40
0.0
  0
LTYPE
  5
15
330
5
100
AcDbSymbolTableRecord
100
AcDbLinetypeTableRecord
  2
ByLayer
 70
     0
  3

 72
    65
 73
     0
 40
0.0
  0
LTYPE
  5
16
330
5
100
AcDbSymbolTableRecord
100
AcDbLinetypeTableRecord
  2
Continuous
 70
     0
  3
Solid line
 72
    65
 73
     0
 40
0.0
  0
LTYPE
  5
6E
330
5
100
AcDbSymbolTableRecord
100
AcDbLinetypeTableRecord
  2
HIDDEN
 70
     0
  3
Hidden __ __ __ __ __ __ __ __ __ __ __ __ __ __
 72
    65
 73
     2
 40
1.905
 49
1.27
 74
     0
 49
-0.635
 74
     0
  0
LTYPE
  5
6F
330
5
100
AcDbSymbolTableRecord
100
AcDbLinetypeTableRecord
  2
PHANTOM
 70
     0
  3
Phantom ______  __  __  ______  __  __  ______
 72
    65
 73
     6
 40
12.7
 49
6.35
 74
     0
 49
-1.27
 74
     0
 49
1.27
 74
     0
 49
-1.27
 74
     0
 49
1.27
 74
     0
 49
-1.27
 74
     0
  0
LTYPE
  5
70
330
5
100
AcDbSymbolTableRecord
100
AcDbLinetypeTableRecord
  2
CENTER
 70
     0
  3
Center ____ _ ____ _ ____ _ ____ _ ____ _ ____
 72
    65
 73
     4
 40
10.16
 49
6.35
 74
     0
 49
-1.27
 74
     0
 49
1.27
 74
     0
 49
-1.27
 74
     0
  0
LTYPE
  5
71
330
5
100
AcDbSymbolTableRecord
100
AcDbLinetypeTableRecord
  2
CENTERX2
 70
     0
  3
Center (2x) ________  __  ________  __  _____
 72
    65
 73
     4
 40
20.32
 49
12.7
 74
     0
 49
-2.54
 74
     0
 49
2.54
 74
     0
 49
-2.54
 74
     0
  0
LTYPE
  5
72
330
5
100
AcDbSymbolTableRecord
100
AcDbLinetypeTableRecord
  2
DOT2
 70
     0
  3
Dot (.5x) ........................................
 72
    65
 73
     2
 40
0.635
 49
0.0
 74
     0
 49
-0.635
 74
     0
  0
ENDTAB
  0
TABLE
  2
LAYER
  5
2
330
0
100
AcDbSymbolTable
 70
    17
  0
LAYER
  5
10
330
2
100
AcDbSymbolTableRecord
100
AcDbLayerTableRecord
  2
0
 70
     0
 62
     7
  6
Continuous
370
    -3
390
F
  0
LAYER
  5
73
330
2
100
AcDbSymbolTableRecord
100
AcDbLayerTableRecord
  2
FORMAT
 70
     0
 62
     7
  6
Continuous
370
    -3
390
F
  0
LAYER
  5
74
330
2
100
AcDbSymbolTableRecord
100
AcDbLayerTableRecord
  2
YARDIMCI_GEOMETRI
 70
     0
 62
    -6
  6
Continuous
290
     0
370
    -3
390
F
  0
LAYER
  5
75
330
2
100
AcDbSymbolTableRecord
100
AcDbLayerTableRecord
  2
SAYFA_CERCEVESI
 70
     0
 62
     7
  6
Continuous
370
    25
390
F
  0
LAYER
  5
76
330
2
100
AcDbSymbolTableRecord
100
AcDbLayerTableRecord
  2
ANTET
 70
     0
 62
     7
  6
Continuous
370
    -3
390
F
  0
LAYER
  5
77
330
2
100
AcDbSymbolTableRecord
100
AcDbLayerTableRecord
  2
OLCU
 70
     0
 62
   150
  6
Continuous
370
    -3
390
F
  0
LAYER
  5
78
330
2
100
AcDbSymbolTableRecord
100
AcDbLayerTableRecord
  2
METIN
 70
     0
 62
    96
  6
Continuous
370
    -3
390
F
  0
LAYER
  5
79
330
2
100
AcDbSymbolTableRecord
100
AcDbLayerTableRecord
  2
BALON
 70
     0
 62
     5
  6
Continuous
370
    -3
390
F
  0
LAYER
  5
7A
330
2
100
AcDbSymbolTableRecord
100
AcDbLayerTableRecord
  2
VURGU
 70
     0
 62
     7
  6
Continuous
370
    -3
390
F
  0
LAYER
  5
7B
330
2
100
AcDbSymbolTableRecord
100
AcDbLayerTableRecord
  2
SILIK
 70
     0
 62
     7
  6
Continuous
370
    -3
390
F
  0
LAYER
  5
7C
330
2
100
AcDbSymbolTableRecord
100
AcDbLayerTableRecord
  2
MODEL
 70
     0
 62
     7
  6
Continuous
370
    -3
390
F
  0
LAYER
  5
7D
330
2
100
AcDbSymbolTableRecord
100
AcDbLayerTableRecord
  2
DETAYLANDıRMA
 70
     0
 62
   190
  6
Continuous
370
    -3
390
F
  0
LAYER
  5
7E
330
2
100
AcDbSymbolTableRecord
100
AcDbLayerTableRecord
  2
TOLERANS
 70
     0
 62
   230
  6
Continuous
370
    -3
390
F
  0
LAYER
  5
7F
330
2
100
AcDbSymbolTableRecord
100
AcDbLayerTableRecord
  2
MERKEZ_CIZGILERI
 70
     0
 62
    30
  6
Continuous
370
    -3
390
F
  0
LAYER
  5
80
330
2
100
AcDbSymbolTableRecord
100
AcDbLayerTableRecord
  2
KESIT-DETAY_CIZGILERI
 70
     0
 62
     7
  6
Continuous
370
    -3
390
F
  0
LAYER
  5
81
330
2
100
AcDbSymbolTableRecord
100
AcDbLayerTableRecord
  2
\U+041E\U+0421\U+0415\U+0412\U+042B\U+0415
 70
     0
 62
     7
  6
Continuous
370
    -3
390
F
  0
LAYER
  5
82
330
2
100
AcDbSymbolTableRecord
100
AcDbLayerTableRecord
  2
\U+0412\U+041E\U+0414\U+042F\U+041D\U+042B\U+0415_\U+0417\U+041D\U+0410\U+041A\U+0418
 70
     0
 62
    11
  6
Continuous
370
    -3
390
F
  0
ENDTAB
  0
TABLE
  2
STYLE
  5
3
330
0
100
AcDbSymbolTable
 70
     1
  0
STYLE
  5
11
330
3
100
AcDbSymbolTableRecord
100
AcDbTextStyleTableRecord
  2
Standard
 70
     0
 40
0.0
 41
1.0
 50
0.0
 71
     0
 42
3.5
  3
txt
  4

  0
ENDTAB
  0
TABLE
  2
VIEW
  5
6
330
0
100
AcDbSymbolTable
 70
     0
  0
ENDTAB
  0
TABLE
  2
UCS
  5
7
330
0
100
AcDbSymbolTable
 70
     0
  0
ENDTAB
  0
TABLE
  2
APPID
  5
9
330
0
100
AcDbSymbolTable
 70
     1
  0
APPID
  5
12
330
9
100
AcDbSymbolTableRecord
100
AcDbRegAppTableRecord
  2
ACAD
 70
     0
  0
ENDTAB
  0
TABLE
  2
DIMSTYLE
  5
A
330
0
100
AcDbSymbolTable
 70
     1
100
AcDbDimStyleTable
  0
DIMSTYLE
105
27
330
A
100
AcDbSymbolTableRecord
100
AcDbDimStyleTableRecord
  2
ISO-25
 70
     0
 41
2.5
 42
0.625
 43
3.75
 44
1.25
 73
     0
 74
     0
 77
     1
 78
     8
140
2.5
141
2.5
143
0.0393700787
147
0.625
171
     3
172
     1
178
     0
271
     2
272
     2
274
     3
278
    44
283
     0
284
     8
340
11
  0
ENDTAB
  0
TABLE
  2
BLOCK_RECORD
  5
1
330
0
100
AcDbSymbolTable
 70
     6
  0
BLOCK_RECORD
  5
1F
330
1
100
AcDbSymbolTableRecord
100
AcDbBlockTableRecord
  2
*Model_Space
340
22
  0
BLOCK_RECORD
  5
1B
330
1
100
AcDbSymbolTableRecord
100
AcDbBlockTableRecord
  2
*Paper_Space
340
1E
  0
BLOCK_RECORD
  5
23
330
1
100
AcDbSymbolTableRecord
100
AcDbBlockTableRecord
  2
*Paper_Space0
340
26
  0
BLOCK_RECORD
  5
8F
330
1
100
AcDbSymbolTableRecord
100
AcDbBlockTableRecord
  2
SW_CENTERMARKSYMBOL_0
340
0
102
{BLKREFS
331
9A
102
}
  0
BLOCK_RECORD
  5
9B
330
1
100
AcDbSymbolTableRecord
100
AcDbBlockTableRecord
  2
SW_CENTERMARKSYMBOL_1
340
0
102
{BLKREFS
331
A6
102
}
  0
BLOCK_RECORD
  5
A7
330
1
100
AcDbSymbolTableRecord
100
AcDbBlockTableRecord
  2
SW_CENTERMARKSYMBOL_2
340
0
102
{BLKREFS
331
B2
102
}
  0
BLOCK_RECORD
  5
B3
330
1
100
AcDbSymbolTableRecord
100
AcDbBlockTableRecord
  2
SW_CENTERMARKSYMBOL_3
340
0
102
{BLKREFS
331
BE
102
}
  0
BLOCK_RECORD
  5
BF
330
1
100
AcDbSymbolTableRecord
100
AcDbBlockTableRecord
  2
SW_CENTERMARKSYMBOL_4
340
0
102
{BLKREFS
331
CA
102
}
  0
ENDTAB
  0
ENDSEC
  0
SECTION
  2
BLOCKS
  0
BLOCK
  5
20
330
1F
100
AcDbEntity
  8
0
100
AcDbBlockBegin
  2
*Model_Space
 70
     0
 10
0.0
 20
0.0
 30
0.0
  3
*Model_Space
  1

  0
ENDBLK
  5
21
330
1F
100
AcDbEntity
  8
0
100
AcDbBlockEnd
  0
BLOCK
  5
1C
330
1B
100
AcDbEntity
 67
     1
  8
0
100
AcDbBlockBegin
  2
*Paper_Space
 70
     0
 10
0.0
 20
0.0
 30
0.0
  3
*Paper_Space
  1

  0
ENDBLK
  5
1D
330
1B
100
AcDbEntity
 67
     1
  8
0
100
AcDbBlockEnd
  0
BLOCK
  5
24
330
23
100
AcDbEntity
  8
0
100
AcDbBlockBegin
  2
*Paper_Space0
 70
     0
 10
0.0
 20
0.0
 30
0.0
  3
*Paper_Space0
  1

  0
ENDBLK
  5
25
330
23
100
AcDbEntity
  8
0
100
AcDbBlockEnd
  0
BLOCK
  5
90
330
8F
100
AcDbEntity
  8
0
100
AcDbBlockBegin
  2
SW_CENTERMARKSYMBOL_0
 70
     0
 10
0.0
 20
0.0
 30
0.0
  3
SW_CENTERMARKSYMBOL_0
  1

  0
LINE
  5
92
330
8F
100
AcDbEntity
  8
FORMAT
 62
     0
100
AcDbLine
 10
0.0
 20
0.0
 30
0.0
 11
0.0
 21
2.5
 31
0.0
  0
LINE
  5
93
330
8F
100
AcDbEntity
  8
FORMAT
 62
     0
100
AcDbLine
 10
0.0
 20
0.0
 30
0.0
 11
-2.5
 21
0.0
 31
0.0
  0
LINE
  5
94
330
8F
100
AcDbEntity
  8
FORMAT
 62
     0
100
AcDbLine
 10
0.0
 20
0.0
 30
0.0
 11
0.0
 21
-2.5
 31
0.0
  0
LINE
  5
95
330
8F
100
AcDbEntity
  8
FORMAT
 62
     0
100
AcDbLine
 10
0.0
 20
0.0
 30
0.0
 11
2.5
 21
0.0
 31
0.0
  0
LINE
  5
96
330
8F
100
AcDbEntity
  8
FORMAT
 62
     0
100
AcDbLine
 10
0.0
 20
5.0
 30
0.0
 11
0.0
 21
59.5
 31
0.0
  0
LINE
  5
97
330
8F
100
AcDbEntity
  8
FORMAT
 62
     0
100
AcDbLine
 10
-5.0
 20
0.0
 30
0.0
 11
-59.5
 21
0.0
 31
0.0
  0
LINE
  5
98
330
8F
100
AcDbEntity
  8
FORMAT
 62
     0
100
AcDbLine
 10
0.0
 20
-5.0
 30
0.0
 11
0.0
 21
-59.5
 31
0.0
  0
LINE
  5
99
330
8F
100
AcDbEntity
  8
FORMAT
 62
     0
100
AcDbLine
 10
5.0
 20
0.0
 30
0.0
 11
59.5
 21
0.0
 31
0.0
  0
ENDBLK
  5
91
330
8F
100
AcDbEntity
  8
0
100
AcDbBlockEnd
  0
BLOCK
  5
9C
330
9B
100
AcDbEntity
  8
0
100
AcDbBlockBegin
  2
SW_CENTERMARKSYMBOL_1
 70
     0
 10
0.0
 20
0.0
 30
0.0
  3
SW_CENTERMARKSYMBOL_1
  1

  0
LINE
  5
9E
330
9B
100
AcDbEntity
  8
FORMAT
 62
     0
100
AcDbLine
 10
0.0
 20
0.0
 30
0.0
 11
0.0
 21
2.5
 31
0.0
  0
LINE
  5
9F
330
9B
100
AcDbEntity
  8
FORMAT
 62
     0
100
AcDbLine
 10
0.0
 20
0.0
 30
0.0
 11
-2.5
 21
0.0
 31
0.0
  0
LINE
  5
A0
330
9B
100
AcDbEntity
  8
FORMAT
 62
     0
100
AcDbLine
 10
0.0
 20
0.0
 30
0.0
 11
0.0
 21
-2.5
 31
0.0
  0
LINE
  5
A1
330
9B
100
AcDbEntity
  8
FORMAT
 62
     0
100
AcDbLine
 10
0.0
 20
0.0
 30
0.0
 11
2.5
 21
0.0
 31
0.0
  0
LINE
  5
A2
330
9B
100
AcDbEntity
  8
FORMAT
 62
     0
100
AcDbLine
 10
0.0
 20
5.0
 30
0.0
 11
0.0
 21
10.5
 31
0.0
  0
LINE
  5
A3
330
9B
100
AcDbEntity
  8
FORMAT
 62
     0
100
AcDbLine
 10
-5.0
 20
0.0
 30
0.0
 11
-10.5
 21
0.0
 31
0.0
  0
LINE
  5
A4
330
9B
100
AcDbEntity
  8
FORMAT
 62
     0
100
AcDbLine
 10
0.0
 20
-5.0
 30
0.0
 11
0.0
 21
-10.5
 31
0.0
  0
LINE
  5
A5
330
9B
100
AcDbEntity
  8
FORMAT
 62
     0
100
AcDbLine
 10
5.0
 20
0.0
 30
0.0
 11
10.5
 21
0.0
 31
0.0
  0
ENDBLK
  5
9D
330
9B
100
AcDbEntity
  8
0
100
AcDbBlockEnd
  0
BLOCK
  5
A8
330
A7
100
AcDbEntity
  8
0
100
AcDbBlockBegin
  2
SW_CENTERMARKSYMBOL_2
 70
     0
 10
0.0
 20
0.0
 30
0.0
  3
SW_CENTERMARKSYMBOL_2
  1

  0
LINE
  5
AA
330
A7
100
AcDbEntity
  8
FORMAT
 62
     0
100
AcDbLine
 10
0.0
 20
0.0
 30
0.0
 11
0.0
 21
2.5
 31
0.0
  0
LINE
  5
AB
330
A7
100
AcDbEntity
  8
FORMAT
 62
     0
100
AcDbLine
 10
0.0
 20
0.0
 30
0.0
 11
-2.5
 21
0.0
 31
0.0
  0
LINE
  5
AC
330
A7
100
AcDbEntity
  8
FORMAT
 62
     0
100
AcDbLine
 10
0.0
 20
0.0
 30
0.0
 11
0.0
 21
-2.5
 31
0.0
  0
LINE
  5
AD
330
A7
100
AcDbEntity
  8
FORMAT
 62
     0
100
AcDbLine
 10
0.0
 20
0.0
 30
0.0
 11
2.5
 21
0.0
 31
0.0
  0
LINE
  5
AE
330
A7
100
AcDbEntity
  8
FORMAT
 62
     0
100
AcDbLine
 10
0.0
 20
5.0
 30
0.0
 11
0.0
 21
10.5
 31
0.0
  0
LINE
  5
AF
330
A7
100
AcDbEntity
  8
FORMAT
 62
     0
100
AcDbLine
 10
-5.0
 20
0.0
 30
0.0
 11
-10.5
 21
0.0
 31
0.0
  0
LINE
  5
B0
330
A7
100
AcDbEntity
  8
FORMAT
 62
     0
100
AcDbLine
 10
0.0
 20
-5.0
 30
0.0
 11
0.0
 21
-10.5
 31
0.0
  0
LINE
  5
B1
330
A7
100
AcDbEntity
  8
FORMAT
 62
     0
100
AcDbLine
 10
5.0
 20
0.0
 30
0.0
 11
10.5
 21
0.0
 31
0.0
  0
ENDBLK
  5
A9
330
A7
100
AcDbEntity
  8
0
100
AcDbBlockEnd
  0
BLOCK
  5
B4
330
B3
100
AcDbEntity
  8
0
100
AcDbBlockBegin
  2
SW_CENTERMARKSYMBOL_3
 70
     0
 10
0.0
 20
0.0
 30
0.0
  3
SW_CENTERMARKSYMBOL_3
  1

  0
LINE
  5
B6
330
B3
100
AcDbEntity
  8
FORMAT
 62
     0
100
AcDbLine
 10
0.0
 20
0.0
 30
0.0
 11
0.0
 21
2.5
 31
0.0
  0
LINE
  5
B7
330
B3
100
AcDbEntity
  8
FORMAT
 62
     0
100
AcDbLine
 10
0.0
 20
0.0
 30
0.0
 11
-2.5
 21
0.0
 31
0.0
  0
LINE
  5
B8
330
B3
100
AcDbEntity
  8
FORMAT
 62
     0
100
AcDbLine
 10
0.0
 20
0.0
 30
0.0
 11
0.0
 21
-2.5
 31
0.0
  0
LINE
  5
B9
330
B3
100
AcDbEntity
  8
FORMAT
 62
     0
100
AcDbLine
 10
0.0
 20
0.0
 30
0.0
 11
2.5
 21
0.0
 31
0.0
  0
LINE
  5
BA
330
B3
100
AcDbEntity
  8
FORMAT
 62
     0
100
AcDbLine
 10
0.0
 20
5.0
 30
0.0
 11
0.0
 21
10.5
 31
0.0
  0
LINE
  5
BB
330
B3
100
AcDbEntity
  8
FORMAT
 62
     0
100
AcDbLine
 10
-5.0
 20
0.0
 30
0.0
 11
-10.5
 21
0.0
 31
0.0
  0
LINE
  5
BC
330
B3
100
AcDbEntity
  8
FORMAT
 62
     0
100
AcDbLine
 10
0.0
 20
-5.0
 30
0.0
 11
0.0
 21
-10.5
 31
0.0
  0
LINE
  5
BD
330
B3
100
AcDbEntity
  8
FORMAT
 62
     0
100
AcDbLine
 10
5.0
 20
0.0
 30
0.0
 11
10.5
 21
0.0
 31
0.0
  0
ENDBLK
  5
B5
330
B3
100
AcDbEntity
  8
0
100
AcDbBlockEnd
  0
BLOCK
  5
C0
330
BF
100
AcDbEntity
  8
0
100
AcDbBlockBegin
  2
SW_CENTERMARKSYMBOL_4
 70
     0
 10
0.0
 20
0.0
 30
0.0
  3
SW_CENTERMARKSYMBOL_4
  1

  0
LINE
  5
C2
330
BF
100
AcDbEntity
  8
FORMAT
 62
     0
100
AcDbLine
 10
0.0
 20
0.0
 30
0.0
 11
0.0
 21
2.5
 31
0.0
  0
LINE
  5
C3
330
BF
100
AcDbEntity
  8
FORMAT
 62
     0
100
AcDbLine
 10
0.0
 20
0.0
 30
0.0
 11
-2.5
 21
0.0
 31
0.0
  0
LINE
  5
C4
330
BF
100
AcDbEntity
  8
FORMAT
 62
     0
100
AcDbLine
 10
0.0
 20
0.0
 30
0.0
 11
0.0
 21
-2.5
 31
0.0
  0
LINE
  5
C5
330
BF
100
AcDbEntity
  8
FORMAT
 62
     0
100
AcDbLine
 10
0.0
 20
0.0
 30
0.0
 11
2.5
 21
0.0
 31
0.0
  0
LINE
  5
C6
330
BF
100
AcDbEntity
  8
FORMAT
 62
     0
100
AcDbLine
 10
0.0
 20
5.0
 30
0.0
 11
0.0
 21
10.5
 31
0.0
  0
LINE
  5
C7
330
BF
100
AcDbEntity
  8
FORMAT
 62
     0
100
AcDbLine
 10
-5.0
 20
0.0
 30
0.0
 11
-10.5
 21
0.0
 31
0.0
  0
LINE
  5
C8
330
BF
100
AcDbEntity
  8
FORMAT
 62
     0
100
AcDbLine
 10
0.0
 20
-5.0
 30
0.0
 11
0.0
 21
-10.5
 31
0.0
  0
LINE
  5
C9
330
BF
100
AcDbEntity
  8
FORMAT
 62
     0
100
AcDbLine
 10
5.0
 20
0.0
 30
0.0
 11
10.5
 21
0.0
 31
0.0
  0
ENDBLK
  5
C1
330
BF
100
AcDbEntity
  8
0
100
AcDbBlockEnd
  0
ENDSEC
  0
SECTION
  2
ENTITIES
  0
CIRCLE
  5
83
330
1F
100
AcDbEntity
  8
0
  6
Continuous
 62
     7
370
    25
100
AcDbCircle
 10
137.8667640332
 20
63.9138469371
 30
0.0
 40
9.0
  0
CIRCLE
  5
84
330
1F
100
AcDbEntity
  8
0
  6
Continuous
 62
     7
370
    25
100
AcDbCircle
 10
137.8667640332
 20
143.2138469371
 30
0.0
 40
9.0
  0
CIRCLE
  5
85
330
1F
100
AcDbEntity
  8
0
  6
Continuous
 62
     7
370
    25
100
AcDbCircle
 10
137.8667640332
 20
103.5638469371
 30
0.0
 40
56.0
  0
CIRCLE
  5
86
330
1F
100
AcDbEntity
  8
0
  6
Continuous
 62
     7
370
    25
100
AcDbCircle
 10
137.8667640332
 20
103.5638469371
 30
0.0
 40
22.0
  0
CIRCLE
  5
87
330
1F
100
AcDbEntity
  8
0
  6
Continuous
 62
     7
370
    25
100
AcDbCircle
 10
177.5167640332
 20
103.5638469371
 30
0.0
 40
9.0
  0
CIRCLE
  5
88
330
1F
100
AcDbEntity
  8
0
  6
Continuous
 62
     7
370
    25
100
AcDbCircle
 10
98.2167640332
 20
103.5638469371
 30
0.0
 40
9.0
  0
CIRCLE
  5
89
330
1F
100
AcDbEntity
  8
0
  6
Continuous
 62
     7
370
    25
100
AcDbCircle
 10
137.8667640332
 20
103.5638469371
 30
0.0
 40
21.0
  0
CIRCLE
  5
8A
330
1F
100
AcDbEntity
  8
0
  6
Continuous
 62
     7
370
    25
100
AcDbCircle
 10
137.8667640332
 20
103.5638469371
 30
0.0
 40
57.0
  0
CIRCLE
  5
8B
330
1F
100
AcDbEntity
  8
0
  6
Continuous
 62
     7
370
    25
100
AcDbCircle
 10
137.8667640332
 20
143.2138469371
 30
0.0
 40
8.0
  0
CIRCLE
  5
8C
330
1F
100
AcDbEntity
  8
0
  6
Continuous
 62
     7
370
    25
100
AcDbCircle
 10
98.2167640332
 20
103.5638469371
 30
0.0
 40
8.000000000000014
  0
CIRCLE
  5
8D
330
1F
100
AcDbEntity
  8
0
  6
Continuous
 62
     7
370
    25
100
AcDbCircle
 10
177.5167640332
 20
103.5638469371
 30
0.0
 40
8.0
  0
CIRCLE
  5
8E
330
1F
100
AcDbEntity
  8
0
  6
Continuous
 62
     7
370
    25
100
AcDbCircle
 10
137.8667640332
 20
63.9138469371
 30
0.0
 40
8.0
  0
INSERT
  5
9A
330
1F
100
AcDbEntity
  8
FORMAT
 62
     7
100
AcDbBlockReference
  2
SW_CENTERMARKSYMBOL_0
 10
137.8667640332
 20
103.5638469371
 30
0.0
  0
INSERT
  5
A6
330
1F
100
AcDbEntity
  8
FORMAT
 62
     7
100
AcDbBlockReference
  2
SW_CENTERMARKSYMBOL_1
 10
137.8667640332
 20
143.2138469371
 30
0.0
  0
INSERT
  5
B2
330
1F
100
AcDbEntity
  8
FORMAT
 62
     7
100
AcDbBlockReference
  2
SW_CENTERMARKSYMBOL_2
 10
177.5167640332
 20
103.5638469371
 30
0.0
  0
INSERT
  5
BE
330
1F
100
AcDbEntity
  8
FORMAT
 62
     7
100
AcDbBlockReference
  2
SW_CENTERMARKSYMBOL_3
 10
137.8667640332
 20
63.9138469371
 30
0.0
  0
INSERT
  5
CA
330
1F
100
AcDbEntity
  8
FORMAT
 62
     7
100
AcDbBlockReference
  2
SW_CENTERMARKSYMBOL_4
 10
98.2167640332
 20
103.5638469371
 30
0.0
  0
ARC
  5
CB
330
1F
100
AcDbEntity
  8
0
  6
Continuous
 62
     7
370
    25
100
AcDbCircle
 10
21.7435054846
 20
47.5638469371
 30
0.0
 40
1.0
100
AcDbArc
 50
270.0
 51
0.0
  0
ARC
  5
CC
330
1F
100
AcDbEntity
  8
0
  6
Continuous
 62
     7
370
    25
100
AcDbCircle
 10
21.7435054846
 20
159.5638469371
 30
0.0
 40
1.0
100
AcDbArc
 50
0.0
 51
90.0
  0
LINE
  5
CD
330
1F
100
AcDbEntity
  8
0
  6
Continuous
 62
     7
370
    25
100
AcDbLine
 10
21.7435054846
 20
160.5638469371
 30
0.0
 11
7.7435054846
 21
160.5638469371
 31
0.0
  0
LINE
  5
CE
330
1F
100
AcDbEntity
  8
0
  6
Continuous
 62
     7
370
    25
100
AcDbLine
 10
7.7435054846
 20
46.5638469371
 30
0.0
 11
21.7435054846
 21
46.5638469371
 31
0.0
  0
ARC
  5
CF
330
1F
100
AcDbEntity
  8
0
  6
Continuous
 62
     7
370
    25
100
AcDbCircle
 10
7.7435054846
 20
47.5638469371
 30
0.0
 40
1.000000000000001
100
AcDbArc
 50
180.0
 51
270.0
  0
ARC
  5
D0
330
1F
100
AcDbEntity
  8
0
  6
Continuous
 62
     7
370
    25
100
AcDbCircle
 10
7.7435054846
 20
159.5638469371
 30
0.0
 40
1.000000000000001
100
AcDbArc
 50
90.0
 51
180.0
  0
LINE
  5
D1
330
1F
100
AcDbEntity
  8
0
  6
Continuous
 62
     7
370
    25
100
AcDbLine
 10
22.7435054846
 20
103.5638469371
 30
0.0
 11
22.7435054846
 21
47.5638469371
 31
0.0
  0
LINE
  5
D2
330
1F
100
AcDbEntity
  8
0
  6
Continuous
 62
     7
370
    25
100
AcDbLine
 10
22.7435054846
 20
159.5638469371
 30
0.0
 11
22.7435054846
 21
103.5638469371
 31
0.0
  0
LINE
  5
D3
330
1F
100
AcDbEntity
  8
0
  6
Continuous
 62
     7
370
    25
100
AcDbLine
 10
6.7435054846
 20
103.5638469371
 30
0.0
 11
6.7435054846
 21
159.5638469371
 31
0.0
  0
LINE
  5
D4
330
1F
100
AcDbEntity
  8
0
  6
Continuous
 62
     7
370
    25
100
AcDbLine
 10
6.7435054846
 20
47.5638469371
 30
0.0
 11
6.7435054846
 21
103.5638469371
 31
0.0
  0
LINE
  5
D5
330
1F
100
AcDbEntity
  8
0
  6
Continuous
 62
     1
370
    25
100
AcDbLine
 10
21.7435054846
 20
103.5638469371
 30
0.0
 11
21.7435054846
 21
160.5638469371
 31
0.0
  0
LINE
  5
D6
330
1F
100
AcDbEntity
  8
0
  6
Continuous
 62
     1
370
    25
100
AcDbLine
 10
21.7435054846
 20
46.5638469371
 30
0.0
 11
21.7435054846
 21
103.5638469371
 31
0.0
  0
LINE
  5
D7
330
1F
100
AcDbEntity
  8
0
  6
Continuous
 62
     1
370
    25
100
AcDbLine
 10
7.7435054846
 20
103.5638469371
 30
0.0
 11
7.7435054846
 21
46.5638469371
 31
0.0
  0
LINE
  5
D8
330
1F
100
AcDbEntity
  8
0
  6
Continuous
 62
     1
370
    25
100
AcDbLine
 10
7.7435054846
 20
160.5638469371
 30
0.0
 11
7.7435054846
 21
103.5638469371
 31
0.0
  0
ARC
  5
D9
330
1F
100
AcDbEntity
  8
0
  6
Continuous
 62
     7
370
    25
100
AcDbCircle
 10
255.1848853469
 20
159.5638469371
 30
0.0
 40
1.0
100
AcDbArc
 50
90.0
 51
180.0
  0
ARC
  5
DA
330
1F
100
AcDbEntity
  8
0
  6
Continuous
 62
     7
370
    25
100
AcDbCircle
 10
255.1848853469
 20
47.5638469371
 30
0.0
 40
1.0
100
AcDbArc
 50
180.0
 51
270.0
  0
LINE
  5
DB
330
1F
100
AcDbEntity
  8
0
  6
Continuous
 62
     7
370
    25
100
AcDbLine
 10
255.1848853469
 20
46.5638469371
 30
0.0
 11
269.1848853469
 21
46.5638469371
 31
0.0
  0
LINE
  5
DC
330
1F
100
AcDbEntity
  8
0
  6
Continuous
 62
     7
370
    25
100
AcDbLine
 10
269.1848853469
 20
160.5638469371
 30
0.0
 11
255.1848853469
 21
160.5638469371
 31
0.0
  0
ARC
  5
DD
330
1F
100
AcDbEntity
  8
0
  6
Continuous
 62
     7
370
    25
100
AcDbCircle
 10
269.1848853469
 20
159.5638469371
 30
0.0
 40
1.0
100
AcDbArc
 50
0.0
 51
90.0
  0
ARC
  5
DE
330
1F
100
AcDbEntity
  8
0
  6
Continuous
 62
     7
370
    25
100
AcDbCircle
 10
269.1848853469
 20
47.5638469371
 30
0.0
 40
1.0
100
AcDbArc
 50
270.0
 51
0.0
  0
LINE
  5
DF
330
1F
100
AcDbEntity
  8
0
  6
Continuous
 62
     7
370
    25
100
AcDbLine
 10
254.1848853469
 20
47.5638469371
 30
0.0
 11
254.1848853469
 21
159.5638469371
 31
0.0
  0
LINE
  5
E0
330
1F
100
AcDbEntity
  8
0
  6
Continuous
 62
     7
370
    25
100
AcDbLine
 10
270.1848853469
 20
159.5638469371
 30
0.0
 11
270.1848853469
 21
47.5638469371
 31
0.0
  0
LINE
  5
E1
330
1F
100
AcDbEntity
  8
0
  6
Continuous
 62
     1
370
    25
100
AcDbLine
 10
255.1848853469
 20
160.5638469371
 30
0.0
 11
255.1848853469
 21
46.5638469371
 31
0.0
  0
LINE
  5
E2
330
1F
100
AcDbEntity
  8
0
  6
Continuous
 62
     1
370
    25
100
AcDbLine
 10
269.1848853469
 20
46.5638469371
 30
0.0
 11
269.1848853469
 21
160.5638469371
 31
0.0
  0
ARC
  5
E3
330
1F
100
AcDbEntity
  8
0
  6
Continuous
 62
     7
370
    25
100
AcDbCircle
 10
81.8667640332
 20
208.5710814589
 30
0.0
 40
1.0
100
AcDbArc
 50
180.0
 51
270.0
  0
ARC
  5
E4
330
1F
100
AcDbEntity
  8
0
  6
Continuous
 62
     7
370
    25
100
AcDbCircle
 10
193.8667640332
 20
208.5710814589
 30
0.0
 40
1.0
100
AcDbArc
 50
270.0
 51
0.0
  0
LINE
  5
E5
330
1F
100
AcDbEntity
  8
0
  6
Continuous
 62
     7
370
    25
100
AcDbLine
 10
194.8667640332
 20
208.5710814589
 30
0.0
 11
194.8667640332
 21
222.5710814589
 31
0.0
  0
LINE
  5
E6
330
1F
100
AcDbEntity
  8
0
  6
Continuous
 62
     7
370
    25
100
AcDbLine
 10
80.8667640332
 20
222.5710814589
 30
0.0
 11
80.8667640332
 21
208.5710814589
 31
0.0
  0
ARC
  5
E7
330
1F
100
AcDbEntity
  8
0
  6
Continuous
 62
     7
370
    25
100
AcDbCircle
 10
81.8667640332
 20
222.5710814589
 30
0.0
 40
1.0
100
AcDbArc
 50
90.0
 51
180.0
  0
ARC
  5
E8
330
1F
100
AcDbEntity
  8
0
  6
Continuous
 62
     7
370
    25
100
AcDbCircle
 10
193.8667640332
 20
222.5710814589
 30
0.0
 40
1.0
100
AcDbArc
 50
0.0
 51
90.0
  0
LINE
  5
E9
330
1F
100
AcDbEntity
  8
0
  6
Continuous
 62
     7
370
    25
100
AcDbLine
 10
193.8667640332
 20
207.5710814589
 30
0.0
 11
81.8667640336
 21
207.5710814589
 31
0.0
  0
LINE
  5
EA
330
1F
100
AcDbEntity
  8
0
  6
Continuous
 62
     7
370
    25
100
AcDbLine
 10
81.8667640336
 20
223.5710814589
 30
0.0
 11
193.8667640332
 21
223.5710814589
 31
0.0
  0
LINE
  5
EB
330
1F
100
AcDbEntity
  8
0
  6
Continuous
 62
     1
370
    25
100
AcDbLine
 10
80.8667640332
 20
208.5710814589
 30
0.0
 11
194.8667640332
 21
208.5710814589
 31
0.0
  0
LINE
  5
EC
330
1F
100
AcDbEntity
  8
0
  6
Continuous
 62
     1
370
    25
100
AcDbLine
 10
194.8667640332
 20
222.5710814589
 30
0.0
 11
80.8667640332
 21
222.5710814589
 31
0.0
  0
ARC
  5
ED
330
1F
100
AcDbEntity
  8
0
  6
Continuous
 62
     7
370
    25
100
AcDbCircle
 10
193.8667640332
 20
-37.6952542825
 30
0.0
 40
1.0
100
AcDbArc
 50
0.0
 51
90.0
  0
ARC
  5
EE
330
1F
100
AcDbEntity
  8
0
  6
Continuous
 62
     7
370
    25
100
AcDbCircle
 10
81.8667640332
 20
-37.6952542825
 30
0.0
 40
1.0
100
AcDbArc
 50
90.0
 51
180.0
  0
LINE
  5
EF
330
1F
100
AcDbEntity
  8
0
  6
Continuous
 62
     7
370
    25
100
AcDbLine
 10
80.8667640332
 20
-37.6952542825
 30
0.0
 11
80.8667640332
 21
-51.6952542825
 31
0.0
  0
LINE
  5
F0
330
1F
100
AcDbEntity
  8
0
  6
Continuous
 62
     7
370
    25
100
AcDbLine
 10
194.8667640332
 20
-51.6952542825
 30
0.0
 11
194.8667640332
 21
-37.6952542825
 31
0.0
  0
ARC
  5
F1
330
1F
100
AcDbEntity
  8
0
  6
Continuous
 62
     7
370
    25
100
AcDbCircle
 10
193.8667640332
 20
-51.6952542825
 30
0.0
 40
1.0
100
AcDbArc
 50
270.0
 51
0.0
  0
ARC
  5
F2
330
1F
100
AcDbEntity
  8
0
  6
Continuous
 62
     7
370
    25
100
AcDbCircle
 10
81.8667640332
 20
-51.6952542825
 30
0.0
 40
1.0
100
AcDbArc
 50
180.0
 51
270.0
  0
LINE
  5
F3
330
1F
100
AcDbEntity
  8
0
  6
Continuous
 62
     7
370
    25
100
AcDbLine
 10
81.8667640336
 20
-36.6952542825
 30
0.0
 11
193.8667640332
 21
-36.6952542825
 31
0.0
  0
LINE
  5
F4
330
1F
100
AcDbEntity
  8
0
  6
Continuous
 62
     7
370
    25
100
AcDbLine
 10
193.8667640332
 20
-52.6952542825
 30
0.0
 11
81.8667640336
 21
-52.6952542825
 31
0.0
  0
LINE
  5
F5
330
1F
100
AcDbEntity
  8
0
  6
Continuous
 62
     1
370
    25
100
AcDbLine
 10
194.8667640332
 20
-37.6952542825
 30
0.0
 11
80.8667640332
 21
-37.6952542825
 31
0.0
  0
LINE
  5
F6
330
1F
100
AcDbEntity
  8
0
  6
Continuous
 62
     1
370
    25
100
AcDbLine
 10
80.8667640332
 20
-51.6952542825
 30
0.0
 11
194.8667640332
 21
-51.6952542825
 31
0.0
  0
SPLINE
  5
F7
330
1F
100
AcDbEntity
  8
0
  6
Continuous
 62
     7
370
    25
100
AcDbSpline
210
0.0
220
0.0
230
1.0
 70
     8
 71
     3
 72
    79
 73
    75
 74
     0
 42
0.00000001
 43
0.00000001
 40
0.0
 40
0.0
 40
0.0
 40
0.0
 40
0.0137629987699399
 40
0.0275718729703737
 40
0.0413980852402624
 40
0.0552466617471303
 40
0.0691209179807622
 40
0.0830224017137118
 40
0.0969510291377784
 40
0.1109053641096188
 40
0.124882976360837
 40
0.138880815820805
 40
0.1528955533034179
 40
0.1669238567246434
 40
0.1809625908105221
 40
0.1950089428974785
 40
0.2090604863716086
 40
0.2231151969777677
 40
0.2371714371214767
 40
0.2512276890344637
 40
0.2652829413825897
 40
0.2793365547477891
 40
0.2933880916155173
 40
0.307437277439664
 40
0.3214839671260891
 40
0.335528116948821
 40
0.3495697615121165
 40
0.3636089951776669
 40
0.3776459573143016
 40
0.3916808207422401
 40
0.405713782798829
 40
0.4197450585243131
 40
0.4337748755410986
 40
0.4478034702702242
 40
0.4618310851909381
 40
0.4758579669018234
 40
0.489884364784733
 40
0.5039105301065208
 40
0.5179367154186968
 40
0.5319631120401209
 40
0.5459899516463544
 40
0.5600174884627102
 40
0.5740459764535685
 40
0.5880756685851609
 40
0.602106815723882
 40
0.6161396650131843
 40
0.6301744575449318
 40
0.6442114251018
 40
0.6582507856979423
 40
0.6722927375856811
 40
0.6863374513265138
 40
0.700385059447681
 40
0.7144356431257276
 40
0.7284892152659488
 40
0.7425456992986998
 40
0.7566049030190696
 40
0.7706664869002198
 40
0.7847299265789154
 40
0.7987944697361314
 40
0.8128587551574376
 40
0.8269212372062361
 40
0.8409800605373414
 40
0.8550329530483491
 40
0.8690772190204074
 40
0.8831097716730213
 40
0.8971272217081885
 40
0.911126037335456
 40
0.9251027853226301
 40
0.9390544504156048
 40
0.9529788121923466
 40
0.9668748369222955
 40
0.9807430231037959
 40
0.994585630475538
 40
1.0
 40
1.0
 40
1.0
 40
1.0
 10
298.192653747965
 20
27.76281074973683
 30
0.0
 10
297.7575246637028
 20
27.93710728621349
 30
0.0
 10
296.8858161038504
 20
28.28628133201858
 30
0.0
 10
295.5223845325432
 20
28.69715014845831
 30
0.0
 10
294.119689873285
 20
29.02476550184485
 30
0.0
 10
292.676937797532
 20
29.26000242974867
 30
0.0
 10
291.1975714930998
 20
29.404500737474
 30
0.0
 10
289.6837602337542
 20
29.45724590731364
 30
0.0
 10
288.1381996214795
 20
29.41811970741499
 30
0.0
 10
286.5636201043382
 20
29.28698384431296
 30
0.0
 10
284.962896290839
 20
29.06395507868993
 30
0.0
 10
283.3389855402226
 20
28.74934849144009
 30
0.0
 10
281.694909154454
 20
28.34369801340465
 30
0.0
 10
280.0337238822358
 20
27.84774619481625
 30
0.0
 10
278.3585010936192
 20
27.26243525109489
 30
0.0
 10
276.6723104441091
 20
26.58889395199283
 30
0.0
 10
274.9782088765601
 20
25.82842448971299
 30
0.0
 10
273.2792337784847
 20
24.98249009905977
 30
0.0
 10
271.5784085810476
 20
24.0527094064017
 30
0.0
 10
269.8787329182019
 20
23.04084517801501
 30
0.0
 10
268.1831771453816
 20
21.94879437869222
 30
0.0
 10
266.494673112399
 20
20.77857468944856
 30
0.0
 10
264.8161222701788
 20
19.53232352640753
 30
0.0
 10
263.1503997013012
 20
18.21229735030911
 30
0.0
 10
261.5003524822593
 20
16.82086830177736
 30
0.0
 10
259.8687974748264
 20
15.36052097649148
 30
0.0
 10
258.2585185981896
 20
13.83384917868588
 30
0.0
 10
256.6722636572857
 20
12.24355253962823
 30
0.0
 10
255.112740811608
 20
10.59243292678661
 30
0.0
 10
253.5826147680789
 20
8.883390599282324
 30
0.0
 10
252.0845027757669
 20
7.11942008729903
 30
0.0
 10
250.6209704920195
 20
5.303605788868522
 30
0.0
 10
249.1945277807181
 20
3.439117288371454
 30
0.0
 10
247.8076244948233
 20
1.529204408431805
 30
0.0
 10
246.4626462876702
 20
-0.4228079883233822
 30
0.0
 10
245.1619104908202
 20
-2.41352542807181
 30
0.0
 10
243.9076620905916
 20
-4.43948946381335
 30
0.0
 10
242.7020698310179
 20
-6.497183499485161
 30
0.0
 10
241.5472241703593
 20
-8.583035700101837
 30
0.0
 10
240.4451322342474
 20
-10.6934269139201
 30
0.0
 10
239.3977136692122
 20
-12.82469806609464
 30
0.0
 10
238.4067960817496
 20
-14.97315978636431
 30
0.0
 10
237.4741133243841
 20
-17.13509690551294
 30
0.0
 10
236.6013033519907
 20
-19.30677376551482
 30
0.0
 10
235.7899057354379
 20
-21.48444065035597
 30
0.0
 10
235.0413594253942
 20
-23.66434018355906
 30
0.0
 10
234.3570007718791
 20
-25.84271365299622
 30
0.0
 10
233.7380618008696
 20
-28.01580721903686
 30
0.0
 10
233.1856687435682
 20
-30.17987795655999
 30
0.0
 10
232.7008408060747
 20
-32.33119967522713
 30
0.0
 10
232.284489156447
 20
-34.4660684559771
 30
0.0
 10
231.9374160916101
 20
-36.58080783559449
 30
0.0
 10
231.6603143272712
 20
-38.67177356650618
 30
0.0
 10
231.4537663289322
 20
-40.7353578773996
 30
0.0
 10
231.3182435704436
 20
-42.76799316458968
 30
0.0
 10
231.2541055680596
 20
-44.76615505791496
 30
0.0
 10
231.2615984936668
 20
-46.72636483477146
 30
0.0
 10
231.3408531237187
 20
-48.64519120478436
 30
0.0
 10
231.4918806449234
 20
-50.51923677268464
 30
0.0
 10
231.7145660175476
 20
-52.34514716944534
 30
0.0
 10
232.0086608065104
 20
-54.11961638291287
 30
0.0
 10
232.3737780861202
 20
-55.8394024761021
 30
0.0
 10
232.8093830184906
 20
-57.50132470248623
 30
0.0
 10
233.3147818962973
 20
-59.10226730906522
 30
0.0
 10
233.8891103483445
 20
-60.63919200569472
 30
0.0
 10
234.5313260815834
 20
-62.10915015535597
 30
0.0
 10
235.2401923651018
 20
-63.50931951457249
 30
0.0
 10
236.0143140202752
 20
-64.836973677079
 30
0.0
 10
236.8520078094576
 20
-66.08972189992265
 30
0.0
 10
237.7518300702135
 20
-67.2647516341337
 30
0.0
 10
238.710705981093
 20
-68.36177430468692
 30
0.0
 10
239.7310292316303
 20
-69.37216184646879
 30
0.0
 10
240.5791680669883
 20
-70.12767998057632
 30
0.0
 10
241.1056481707908
 20
-70.51622836050592
 30
0.0
 10
241.2536754465479
 20
-70.62547419480322
 30
0.0
  0
LINE
  5
F8
330
1F
100
AcDbEntity
  8
0
  6
Continuous
 62
     7
370
    25
100
AcDbLine
 10
310.2556045315
 20
20.9702353156
 30
0.0
 11
300.3561095949
 21
26.6850920983
 31
0.0
  0
LINE
  5
F9
330
1F
100
AcDbEntity
  8
0
  6
Continuous
 62
     7
370
    25
100
AcDbLine
 10
243.3607418346
 20
-72.0444782131
 30
0.0
 11
253.2602367712
 21
-77.7593349958
 31
0.0
  0
SPLINE
  5
FA
330
1F
100
AcDbEntity
  8
0
  6
Continuous
 62
     7
370
    25
100
AcDbSpline
210
0.0
220
0.0
230
1.0
 70
     8
 71
     3
 72
    63
 73
    59
 74
     0
 42
0.00000001
 43
0.00000001
 40
0.0
 40
0.0
 40
0.0
 40
0.0
 40
0.0009517926778318
 40
0.0190637137959641
 40
0.0371906214985278
 40
0.0553408741724737
 40
0.0735209036483745
 40
0.0917348804837544
 40
0.1099846604055167
 40
0.1282699803348876
 40
0.1465888361007335
 40
0.1649379570830916
 40
0.1833132961599646
 40
0.2017104714237897
 40
0.2201251212082112
 40
0.2385531583572993
 40
0.2569909283393708
 40
0.2754352869655125
 40
0.2938836178433463
 40
0.3123338092614496
 40
0.3307838713902722
 40
0.3492325454349998
 40
0.3676790146964657
 40
0.3861227232770117
 40
0.4045633255087718
 40
0.4230006425229935
 40
0.4414346259254591
 40
0.4598653280421163
 40
0.4782928779612698
 40
0.4967174625274272
 40
0.5151393114667742
 40
0.5335586858988769
 40
0.551975869584092
 40
0.5703911623542917
 40
0.5888048752659861
 40
0.6072173270956608
 40
0.6256288418650701
 40
0.6440397471395091
 40
0.6624503728853828
 40
0.680861050705658
 40
0.6992720231782281
 40
0.7176836030568828
 40
0.7360961240365209
 40
0.7545099194065601
 40
0.7729253210534873
 40
0.7913426579692484
 40
0.8097622540580038
 40
0.8281844249960016
 40
0.846609473846758
 40
0.8650376850679186
 40
0.8834693164670364
 40
0.901904588571459
 40
0.9203436707757305
 40
0.9387866635254163
 40
0.9572335757024953
 40
0.9756842963184946
 40
0.9941385596363714
 40
1.0
 40
1.0
 40
1.0
 40
1.0
 10
255.4541640758503
 20
-78.84740239173333
 30
0.0
 10
255.4765013465573
 20
-78.85772245970742
 30
0.0
 10
255.9239006023598
 20
-79.06442590132404
 30
0.0
 10
256.8390455646602
 20
-79.38555243437493
 30
0.0
 10
258.2002350873653
 20
-79.8027448329647
 30
0.0
 10
259.6078532340987
 20
-80.11985443658514
 30
0.0
 10
261.0530741079497
 20
-80.34895051128163
 30
0.0
 10
262.53533439245
 20
-80.48608524886019
 30
0.0
 10
264.0516770235895
 20
-80.53175789740307
 30
0.0
 10
265.5996038669761
 20
-80.48545938149051
 30
0.0
 10
267.1763184961587
 20
-80.34717495866995
 30
0.0
 10
268.778953356157
 20
-80.11700848630936
 30
0.0
 10
270.4045412198743
 20
-79.79529963154795
 30
0.0
 10
272.0500581898566
 20
-79.3825967973722
 30
0.0
 10
273.7124453953561
 20
-78.87965902089111
 30
0.0
 10
275.3886311652141
 20
-78.28744335487937
 30
0.0
 10
277.0755464771791
 20
-77.60709256544601
 30
0.0
 10
278.7701357166642
 20
-76.8399217845858
 30
0.0
 10
280.4693632045993
 20
-75.98740630084905
 30
0.0
 10
282.1702064589121
 20
-75.05117659105562
 30
0.0
 10
283.8696681121579
 20
-74.03300612664567
 30
0.0
 10
285.5647800870775
 20
-72.93480202266285
 30
0.0
 10
287.2526137490708
 20
-71.75859091096018
 30
0.0
 10
288.930269652723
 20
-70.50651959343881
 30
0.0
 10
290.5948748272833
 20
-69.1808536453192
 30
0.0
 10
292.2435844598607
 20
-67.78397406827966
 30
0.0
 10
293.8735841466813
 20
-66.3183740690812
 30
0.0
 10
295.4820926583763
 20
-64.78665580606317
 30
0.0
 10
297.0663651426649
 20
-63.1915269935693
 30
0.0
 10
298.6236966799536
 20
-61.53579729264561
 30
0.0
 10
300.151426108568
 20
-59.82237444558738
 30
0.0
 10
301.6469400424172
 20
-58.05426013343648
 30
0.0
 10
303.1076770122041
 20
-56.23454555085502
 30
0.0
 10
304.5311316701575
 20
-54.36640670339663
 30
0.0
 10
305.9148590067523
 20
-52.45309943930843
 30
0.0
 10
307.2564785355158
 20
-50.49795423262555
 30
0.0
 10
308.5536784085854
 20
-48.50437073731224
 30
0.0
 10
309.8042194312965
 20
-46.47581213390919
 30
0.0
 10
311.0059389483466
 20
-44.41579929193652
 30
0.0
 10
312.1567527012592
 20
-42.32790817658459
 30
0.0
 10
313.2546602463237
 20
-40.21576127482156
 30
0.0
 10
314.2977488784949
 20
-38.08302049833708
 30
0.0
 10
315.2841983076535
 20
-35.93337721238237
 30
0.0
 10
316.2122820446828
 20
-33.77054841046741
 30
0.0
 10
317.0803697008149
 20
-31.59827107412588
 30
0.0
 10
317.8869294521647
 20
-29.4202957448738
 30
0.0
 10
318.6305302661681
 20
-27.24038012502901
 30
0.0
 10
319.3098438247392
 20
-25.06228278218601
 30
0.0
 10
319.9236463669492
 20
-22.88975687054306
 30
0.0
 10
320.4708196209544
 20
-20.72654440865543
 30
0.0
 10
320.9503539559193
 20
-18.57636934185651
 30
0.0
 10
321.3613421390974
 20
-16.44293627541064
 30
0.0
 10
321.7030071862839
 20
-14.32990947381615
 30
0.0
 10
321.9746021596151
 20
-12.24096729545958
 30
0.0
 10
322.1757875418958
 20
-10.17957712254472
 30
0.0
 10
322.3052256708667
 20
-8.14981620252891
 30
0.0
 10
322.3520428032352
 20
-6.607535351691875
 30
0.0
 10
322.3551511201234
 20
-5.743422167138721
 30
0.0
 10
322.3559003978046
 20
-5.535122709100174
 30
0.0
  0
SPLINE
  5
FB
330
1F
100
AcDbEntity
  8
0
  6
Continuous
 62
     7
370
    25
100
AcDbSpline
210
0.0
220
0.0
230
1.0
 70
     8
 71
     3
 72
    25
 73
    21
 74
     0
 42
0.00000001
 43
0.00000001
 40
0.0
 40
0.0
 40
0.0
 40
0.0
 40
0.0313304144073605
 40
0.0907811184436232
 40
0.1502419963831408
 40
0.2097023220009406
 40
0.269155563077186
 40
0.3285940081209868
 40
0.3880081910737501
 40
0.4473868520895911
 40
0.5067170597427894
 40
0.5659845644426716
 40
0.6251744495473714
 40
0.6842721233836877
 40
0.743264645945744
 40
0.8021423085000997
 40
0.8609002937771876
 40
0.9195401625764344
 40
0.9780708706973651
 40
1.0
 40
1.0
 40
1.0
 40
1.0
 10
322.3559003978046
 20
-5.535122709100174
 30
0.0
 10
322.353897530161
 20
-5.191233631240403
 30
0.0
 10
322.3480941417213
 20
-4.194801388029405
 30
0.0
 10
322.2836220473191
 20
-2.576997441277161
 30
0.0
 10
322.1389465347102
 20
-0.6989917144467027
 30
0.0
 10
321.921621557947
 20
1.130671004646432
 30
0.0
 10
321.6331238102027
 20
2.909287792867945
 30
0.0
 10
321.2734984255601
 20
4.633433877411459
 30
0.0
 10
320.8433569554687
 20
6.299971300832867
 30
0.0
 10
320.3433566003704
 20
7.905766158706612
 30
0.0
 10
319.7743544886102
 20
9.44777711180849
 30
0.0
 10
319.1373768631909
 20
10.92304661526956
 30
0.0
 10
318.4336464710098
 20
12.32874313773494
 30
0.0
 10
317.6645431973934
 20
13.66212732570802
 30
0.0
 10
316.8317395518196
 20
14.92079773621781
 30
0.0
 10
315.9366571797051
 20
16.10191255249062
 30
0.0
 10
314.9823997035355
 20
17.20521385032028
 30
0.0
 10
313.9664254391396
 20
18.22187528122655
 30
0.0
 10
313.1277641374555
 20
18.97768092517794
 30
0.0
 10
312.6094721475824
 20
19.36481525012935
 30
0.0
 10
312.4682129501196
 20
19.47032775103905
 30
0.0
  0
SPLINE
  5
FC
330
1F
100
AcDbEntity
  8
0
  6
Continuous
 62
     7
370
    25
100
AcDbSpline
210
0.0
220
0.0
230
1.0
 70
     8
 71
     3
 72
    15
 73
    11
 74
     0
 42
0.00000001
 43
0.00000001
 40
0.0
 40
0.0
 40
0.0
 40
0.0
 40
0.1074097421049164
 40
0.253916967148923
 40
0.3929814380601506
 40
0.5407618996651927
 40
0.6833144969439914
 40
0.8232090341053849
 40
0.9621129499355543
 40
1.0
 40
1.0
 40
1.0
 40
1.0
 10
303.9172879033143
 20
0.4087359458976453
 30
0.0
 10
304.00064277131
 20
0.3589624486473701
 30
0.0
 10
304.1976939406339
 20
0.241297745069171
 30
0.0
 10
304.4597337147458
 20
-0.0286720403708737
 30
0.0
 10
304.7214191280821
 20
-0.3958243102922011
 30
0.0
 10
304.9395374025753
 20
-0.8460350886477126
 30
0.0
 10
305.1086826647272
 20
-1.379177038169716
 30
0.0
 10
305.2180861970876
 20
-1.974325176059444
 30
0.0
 10
305.2563796933601
 20
-2.467613875271609
 30
0.0
 10
305.2586780680697
 20
-2.758275684875068
 30
0.0
 10
305.2591706194692
 20
-2.820565737291166
 30
0.0
  0
SPLINE
  5
FD
330
1F
100
AcDbEntity
  8
0
  6
Continuous
 62
     7
370
    25
100
AcDbSpline
210
0.0
220
0.0
230
1.0
 70
     8
 71
     3
 72
    30
 73
    26
 74
     0
 42
0.00000001
 43
0.00000001
 40
0.0
 40
0.0
 40
0.0
 40
0.0
 40
0.0235275399734346
 40
0.0686597296569991
 40
0.1139314834503352
 40
0.159348940125741
 40
0.2049056516981453
 40
0.2505786465685975
 40
0.2963371083376463
 40
0.342146789192274
 40
0.387972049950115
 40
0.433769169379094
 40
0.4794971221902654
 40
0.5251196757952477
 40
0.570602105995035
 40
0.6159141545708611
 40
0.6610360839968314
 40
0.7059700576329919
 40
0.7507602985167509
 40
0.7955131337027471
 40
0.8403957579970006
 40
0.8857879633324127
 40
0.9323322426950584
 40
0.9809619222189696
 40
1.0
 40
1.0
 40
1.0
 40
1.0
 10
305.2591706194692
 20
-2.820565737291166
 30
0.0
 10
305.2574373413779
 20
-2.941580924521268
 30
0.0
 10
305.2523791667745
 20
-3.294735995089247
 30
0.0
 10
305.1951819758351
 20
-3.914669884425459
 30
0.0
 10
305.0651420454219
 20
-4.683957950872879
 30
0.0
 10
304.8692856757741
 20
-5.478751300315599
 30
0.0
 10
304.6101397653168
 20
-6.287609447937891
 30
0.0
 10
304.2899606451571
 20
-7.100008370273914
 30
0.0
 10
303.9124460371413
 20
-7.905042815957334
 30
0.0
 10
303.4821846421837
 20
-8.692015606657538
 30
0.0
 10
303.004727850266
 20
-9.450464031978036
 30
0.0
 10
302.4864786886299
 20
-10.17036845854687
 30
0.0
 10
301.9346088276692
 20
-10.84233093346267
 30
0.0
 10
301.3569394239715
 20
-11.4577669801059
 30
0.0
 10
300.761861901536
 20
-12.00904585446117
 30
0.0
 10
300.1582528684498
 20
-12.4896531470952
 30
0.0
 10
299.5553348023622
 20
-12.89439863786577
 30
0.0
 10
298.9624535364113
 20
-13.21966132007881
 30
0.0
 10
298.388820465374
 20
-13.46354552773634
 30
0.0
 10
297.8431317229689
 20
-13.62615924167964
 30
0.0
 10
297.3329324649197
 20
-13.70913554782387
 30
0.0
 10
296.8619109854046
 20
-13.71749935081801
 30
0.0
 10
296.4334976341448
 20
-13.64862738230668
 30
0.0
 10
296.1194136308097
 20
-13.55214014821471
 30
0.0
 10
295.9606260290689
 20
-13.45059810682183
 30
0.0
 10
295.9159517139593
 20
-13.42202962222775
 30
0.0
  0
SPLINE
  5
FE
330
1F
100
AcDbEntity
  8
0
  6
Continuous
 62
     7
370
    25
100
AcDbSpline
210
0.0
220
0.0
230
1.0
 70
     8
 71
     3
 72
    15
 73
    11
 74
     0
 42
0.00000001
 43
0.00000001
 40
0.0
 40
0.0
 40
0.0
 40
0.0
 40
0.1074097421048891
 40
0.2539169671489052
 40
0.3929814380601265
 40
0.5407618996651488
 40
0.683314496943956
 40
0.8232090341053396
 40
0.9621129499355117
 40
1.0
 40
1.0
 40
1.0
 40
1.0
 10
275.8805040292677
 20
-48.1523980622546
 30
0.0
 10
275.9638588972634
 20
-48.20217155950486
 30
0.0
 10
276.1609100665873
 20
-48.31983626308305
 30
0.0
 10
276.4229498406992
 20
-48.58980604852306
 30
0.0
 10
276.6846352540354
 20
-48.95695831844436
 30
0.0
 10
276.9027535285287
 20
-49.40716909679985
 30
0.0
 10
277.0718987906806
 20
-49.9403110463218
 30
0.0
 10
277.1813023230411
 20
-50.5354591842115
 30
0.0
 10
277.2195958193136
 20
-51.02874788342373
 30
0.0
 10
277.2218941940231
 20
-51.31940969302725
 30
0.0
 10
277.2223867454227
 20
-51.38169974544342
 30
0.0
  0
SPLINE
  5
FF
330
1F
100
AcDbEntity
  8
0
  6
Continuous
 62
     7
370
    25
100
AcDbSpline
210
0.0
220
0.0
230
1.0
 70
     8
 71
     3
 72
    30
 73
    26
 74
     0
 42
0.00000001
 43
0.00000001
 40
0.0
 40
0.0
 40
0.0
 40
0.0
 40
0.0235275399734347
 40
0.0686597296570018
 40
0.1139314834503341
 40
0.1593489401257408
 40
0.2049056516981442
 40
0.2505786465686004
 40
0.2963371083376466
 40
0.3421467891922757
 40
0.3879720499501174
 40
0.4337691693790955
 40
0.4794971221902682
 40
0.5251196757952502
 40
0.5706021059950356
 40
0.6159141545708625
 40
0.6610360839968332
 40
0.7059700576329923
 40
0.7507602985167533
 40
0.7955131337027489
 40
0.840395757997005
 40
0.8857879633324157
 40
0.9323322426950607
 40
0.9809619222189719
 40
1.0
 40
1.0
 40
1.0
 40
1.0
 10
277.2223867454227
 20
-51.38169974544342
 30
0.0
 10
277.2206534673313
 20
-51.50271493267351
 30
0.0
 10
277.2155952927279
 20
-51.85587000324151
 30
0.0
 10
277.1583981017885
 20
-52.47580389257772
 30
0.0
 10
277.0283581713753
 20
-53.24509195902513
 30
0.0
 10
276.8325018017275
 20
-54.03988530846783
 30
0.0
 10
276.5733558912702
 20
-54.84874345609015
 30
0.0
 10
276.2531767711105
 20
-55.66114237842616
 30
0.0
 10
275.8756621630947
 20
-56.46617682410962
 30
0.0
 10
275.4454007681371
 20
-57.2531496148098
 30
0.0
 10
274.9679439762194
 20
-58.01159804013034
 30
0.0
 10
274.4496948145833
 20
-58.73150246669914
 30
0.0
 10
273.8978249536227
 20
-59.40346494161496
 30
0.0
 10
273.3201555499248
 20
-60.01890098825819
 30
0.0
 10
272.7250780274894
 20
-60.57017986261344
 30
0.0
 10
272.1214689944032
 20
-61.05078715524746
 30
0.0
 10
271.5185509283156
 20
-61.45553264601804
 30
0.0
 10
270.9256696623647
 20
-61.78079532823106
 30
0.0
 10
270.3520365913274
 20
-62.02467953588861
 30
0.0
 10
269.8063478489223
 20
-62.1872932498319
 30
0.0
 10
269.296148590873
 20
-62.27026955597614
 30
0.0
 10
268.825127111358
 20
-62.27863335897024
 30
0.0
 10
268.3967137600983
 20
-62.20976139045894
 30
0.0
 10
268.0826297567631
 20
-62.11327415636697
 30
0.0
 10
267.9238421550223
 20
-62.01173211497409
 30
0.0
 10
267.8791678399127
 20
-61.98316363038
 30
0.0
  0
SPLINE
  5
100
330
1F
100
AcDbEntity
  8
0
  6
Continuous
 62
     7
370
    25
100
AcDbSpline
210
0.0
220
0.0
230
1.0
 70
     8
 71
     3
 72
    20
 73
    16
 74
     0
 42
0.00000001
 43
0.00000001
 40
0.0
 40
0.0
 40
0.0
 40
0.0
 40
0.0132447572253217
 40
0.1037770549645529
 40
0.1943337815511412
 40
0.2842820798702145
 40
0.3733111556072328
 40
0.46137341352742
 40
0.5485966811702216
 40
0.6351781786110072
 40
0.7213149187855092
 40
0.8071723324352627
 40
0.8928763899590513
 40
0.9785166731946061
 40
1.0
 40
1.0
 40
1.0
 40
1.0
 10
282.2593807396403
 20
-4.444191280116489
 30
0.0
 10
282.2942293994015
 20
-4.461256090080776
 30
0.0
 10
282.5672801785104
 20
-4.594964522141552
 30
0.0
 10
283.031217970648
 20
-4.927648766677375
 30
0.0
 10
283.6455367676833
 20
-5.447022267406714
 30
0.0
 10
284.2002365238175
 20
-6.057159244986173
 30
0.0
 10
284.6978578509995
 20
-6.743167027853419
 30
0.0
 10
285.1347814833043
 20
-7.503468278936155
 30
0.0
 10
285.5101138556474
 20
-8.333449239324448
 30
0.0
 10
285.8226967542607
 20
-9.229746552917497
 30
0.0
 10
286.0714338407835
 20
-10.18881948885707
 30
0.0
 10
286.2553804436837
 20
-11.20681233729118
 30
0.0
 10
286.372753900294
 20
-12.27995876463799
 30
0.0
 10
286.4120996633413
 20
-13.12202775196323
 30
0.0
 10
286.4143280120347
 20
-13.60278863732774
 30
0.0
 10
286.4147749008503
 20
-13.6992038273273
 30
0.0
  0
SPLINE
  5
101
330
1F
100
AcDbEntity
  8
0
  6
Continuous
 62
     7
370
    25
100
AcDbSpline
210
0.0
220
0.0
230
1.0
 70
     8
 71
     3
 72
    43
 73
    39
 74
     0
 42
0.00000001
 43
0.00000001
 40
0.0
 40
0.0
 40
0.0
 40
0.0
 40
0.015022133787159
 40
0.0436939595424147
 40
0.0723874663233067
 40
0.1011013658144536
 40
0.1298377819193364
 40
0.1585966851832049
 40
0.1873766383263308
 40
0.216175310610496
 40
0.2449898221185485
 40
0.2738169674227373
 40
0.3026533555706465
 40
0.331495493364474
 40
0.3603398315338323
 40
0.3891823024485636
 40
0.4180185964242369
 40
0.4468451069801736
 40
0.4756582446864055
 40
0.5044544808333764
 40
0.5332304274855061
 40
0.5619829729930941
 40
0.5907094995617511
 40
0.6194082191889567
 40
0.6480786763639186
 40
0.6767224792915117
 40
0.7053443326915871
 40
0.7339534464850881
 40
0.7625615401821498
 40
0.7911876393382162
 40
0.8198629696252263
 40
0.8486310076343025
 40
0.8775481914932269
 40
0.9066810531517142
 40
0.9360962790405103
 40
0.9658398081772369
 40
0.9959050374138071
 40
1.0
 40
1.0
 40
1.0
 40
1.0
 10
286.4147749008503
 20
-13.6992038273273
 30
0.0
 10
286.4129041866491
 20
-13.90236186705128
 30
0.0
 10
286.4074629549454
 20
-14.49327520161393
 30
0.0
 10
286.3466796181148
 20
-15.50388124586214
 30
0.0
 10
286.2097481943748
 20
-16.73801953220147
 30
0.0
 10
286.0040180047853
 20
-18.00225341289491
 30
0.0
 10
285.7312858602936
 20
-19.28959740281821
 30
0.0
 10
285.3922420560043
 20
-20.59399367612449
 30
0.0
 10
284.9883476981946
 20
-21.90900474671483
 30
0.0
 10
284.5213232841651
 20
-23.22819940101089
 30
0.0
 10
283.9932706892363
 20
-24.54510406408159
 30
0.0
 10
283.4066225364935
 20
-25.85326591564974
 30
0.0
 10
282.764136291411
 20
-27.14628224103666
 30
0.0
 10
282.0688754354703
 20
-28.41783597103469
 30
0.0
 10
281.3241977031764
 20
-29.66172048540415
 30
0.0
 10
280.5337413889218
 20
-30.87186885776106
 30
0.0
 10
279.7014028658045
 20
-32.04239620325003
 30
0.0
 10
278.8313128708153
 20
-33.16763686308914
 30
0.0
 10
277.9278140617981
 20
-34.24217627215327
 30
0.0
 10
276.9954481041609
 20
-35.26087155990626
 30
0.0
 10
276.0389349374599
 20
-36.21888264082836
 30
0.0
 10
275.0631500306598
 20
-37.11170413407487
 30
0.0
 10
274.0730986800287
 20
-37.93519824050016
 30
0.0
 10
273.0738859979915
 20
-38.68562848853065
 30
0.0
 10
272.0706807279368
 20
-39.35969383504524
 30
0.0
 10
271.0686704789066
 20
-39.95456174660017
 30
0.0
 10
270.0730053335957
 20
-40.46789776027755
 30
0.0
 10
269.088770930632
 20
-40.89786688329888
 30
0.0
 10
268.1209095715693
 20
-41.24315553404394
 30
0.0
 10
267.1740940148825
 20
-41.50297465616465
 30
0.0
 10
266.2525524464986
 20
-41.67703643267735
 30
0.0
 10
265.3599857254947
 20
-41.76534595490052
 30
0.0
 10
264.4993180248516
 20
-41.76830641270145
 30
0.0
 10
263.6733689206956
 20
-41.68529841238548
 30
0.0
 10
262.8825052909929
 20
-41.51878504179597
 30
0.0
 10
262.1346705463275
 20
-41.25763655970174
 30
0.0
 10
261.6204855201073
 20
-41.0324733117813
 30
0.0
 10
261.3706436005233
 20
-40.86883819666553
 30
0.0
 10
261.340693730263
 20
-40.84922239129585
 30
0.0
  0
SPLINE
  5
102
330
1F
100
AcDbEntity
  8
0
  6
Continuous
 62
     7
370
    25
100
AcDbSpline
210
0.0
220
0.0
230
1.0
 70
     8
 71
     3
 72
    39
 73
    35
 74
     0
 42
0.00000001
 43
0.00000001
 40
0.0
 40
0.0
 40
0.0
 40
0.0
 40
0.0125820228624615
 40
0.0451236048741625
 40
0.07760242645126
 40
0.1100538678780993
 40
0.1424998589867364
 40
0.1749531660371821
 40
0.2074244130124636
 40
0.2399191604903812
 40
0.2724394870680926
 40
0.3049851430117056
 40
0.3375543629270493
 40
0.3701444227951262
 40
0.4027520116435089
 40
0.4353734721091805
 40
0.4680049502582275
 40
0.5006424841056953
 40
0.5332820522409676
 40
0.5659188962521077
 40
0.5985482902871242
 40
0.6311661539499198
 40
0.6637684301917999
 40
0.6963511384986159
 40
0.7289104713302839
 40
0.7614429562504786
 40
0.7939457149414026
 40
0.8264168616081455
 40
0.8588560972107459
 40
0.8912655710777676
 40
0.9236510935349745
 40
0.9560237823871564
 40
0.9883969104455206
 40
1.0
 40
1.0
 40
1.0
 40
1.0
 10
267.6785457275591
 20
-41.35134646408627
 30
0.0
 10
267.6447431044509
 20
-41.23023358585137
 30
0.0
 10
267.5235148865787
 20
-40.79587976831468
 30
0.0
 10
267.3809978862475
 20
-39.98243489596126
 30
0.0
 10
267.2525362289712
 20
-38.91876528730657
 30
0.0
 10
267.1949600565935
 20
-37.80019487916974
 30
0.0
 10
267.2039272578959
 20
-36.63701507240001
 30
0.0
 10
267.2812183094878
 20
-35.43323052313222
 30
0.0
 10
267.4265412490039
 20
-34.19491258257809
 30
0.0
 10
267.6397044563124
 20
-32.92787111728297
 30
0.0
 10
267.9200160317059
 20
-31.63825884592203
 30
0.0
 10
268.2664380267262
 20
-30.33235230798174
 30
0.0
 10
268.6775493832089
 20
-29.01654401116688
 30
0.0
 10
269.1515671761508
 20
-27.69728447038301
 30
0.0
 10
269.6863565021619
 20
-26.381043449973
 30
0.0
 10
270.2794459585753
 20
-25.07427076808242
 30
0.0
 10
270.9280431071461
 20
-23.78336089637501
 30
0.0
 10
271.6290508150561
 20
-22.51461931519564
 30
0.0
 10
272.379078541197
 20
-21.27423930572033
 30
0.0
 10
273.1744579661811
 20
-20.06826884585958
 30
0.0
 10
274.0112647714545
 20
-18.90257030759779
 30
0.0
 10
274.8853438436226
 20
-17.78278176607671
 30
0.0
 10
275.7923291053087
 20
-16.71428862579207
 30
0.0
 10
276.7276576605291
 20
-15.70220137317755
 30
0.0
 10
277.6865910546301
 20
-14.75132322981693
 30
0.0
 10
278.6642370443599
 20
-13.86612250015635
 30
0.0
 10
279.6555803839519
 20
-13.05068329326908
 30
0.0
 10
280.6554960090264
 20
-12.30873242262535
 30
0.0
 10
281.6588509774655
 20
-11.64337903695348
 30
0.0
 10
282.6603084435139
 20
-11.05792514031812
 30
0.0
 10
283.6552873622384
 20
-10.55269315051093
 30
0.0
 10
284.636619141395
 20
-10.13675090912328
 30
0.0
 10
285.3994345827701
 20
-9.85962847640707
 30
0.0
 10
285.8248705494757
 20
-9.750978993642159
 30
0.0
 10
285.937121486217
 20
-9.722311915230192
 30
0.0
  0
SPLINE
  5
103
330
1F
100
AcDbEntity
  8
0
  6
Continuous
 62
     7
370
    25
100
AcDbSpline
210
0.0
220
0.0
230
1.0
 70
     8
 71
     3
 72
    15
 73
    11
 74
     0
 42
0.00000001
 43
0.00000001
 40
0.0
 40
0.0
 40
0.0
 40
0.0
 40
0.1074097421048887
 40
0.2539169671489001
 40
0.3929814380601265
 40
0.5407618996651533
 40
0.6833144969439617
 40
0.8232090341053417
 40
0.962112949935517
 40
1.0
 40
1.0
 40
1.0
 40
1.0
 10
275.8805040292703
 20
16.59928832028387
 30
0.0
 10
275.9638588972659
 20
16.54951482303361
 30
0.0
 10
276.1609100665899
 20
16.43185011945543
 30
0.0
 10
276.4229498407017
 20
16.16188033401541
 30
0.0
 10
276.684635254038
 20
15.79472806409411
 30
0.0
 10
276.9027535285313
 20
15.34451728573862
 30
0.0
 10
277.0718987906832
 20
14.81137533621667
 30
0.0
 10
277.1813023230436
 20
14.21622719832695
 30
0.0
 10
277.2195958193161
 20
13.72293849911474
 30
0.0
 10
277.2218941940257
 20
13.43227668951123
 30
0.0
 10
277.2223867454252
 20
13.36998663709506
 30
0.0
  0
SPLINE
  5
104
330
1F
100
AcDbEntity
  8
0
  6
Continuous
 62
     7
370
    25
100
AcDbSpline
210
0.0
220
0.0
230
1.0
 70
     8
 71
     3
 72
    30
 73
    26
 74
     0
 42
0.00000001
 43
0.00000001
 40
0.0
 40
0.0
 40
0.0
 40
0.0
 40
0.0235275399734346
 40
0.0686597296570017
 40
0.113931483450334
 40
0.1593489401257407
 40
0.204905651698144
 40
0.2505786465686002
 40
0.2963371083376465
 40
0.3421467891922755
 40
0.3879720499501171
 40
0.4337691693790952
 40
0.4794971221902679
 40
0.5251196757952499
 40
0.5706021059950351
 40
0.6159141545708621
 40
0.6610360839968328
 40
0.705970057632995
 40
0.7507602985167502
 40
0.7955131337027457
 40
0.840395757996999
 40
0.8857879633324134
 40
0.9323322426950582
 40
0.9809619222189693
 40
1.0
 40
1.0
 40
1.0
 40
1.0
 10
277.2223867454252
 20
13.36998663709506
 30
0.0
 10
277.2206534673339
 20
13.24897144986496
 30
0.0
 10
277.2155952927305
 20
12.89581637929696
 30
0.0
 10
277.158398101791
 20
12.27588248996075
 30
0.0
 10
277.0283581713778
 20
11.50659442351335
 30
0.0
 10
276.8325018017301
 20
10.71180107407065
 30
0.0
 10
276.5733558912727
 20
9.902942926448326
 30
0.0
 10
276.253176771113
 20
9.0905440041123
 30
0.0
 10
275.8756621630972
 20
8.285509558428876
 30
0.0
 10
275.4454007681397
 20
7.498536767728652
 30
0.0
 10
274.9679439762219
 20
6.740088342408155
 30
0.0
 10
274.4496948145859
 20
6.020183915839334
 30
0.0
 10
273.8978249536252
 20
5.34822144092352
 30
0.0
 10
273.3201555499274
 20
4.732785394280302
 30
0.0
 10
272.725078027492
 20
4.181506519925039
 30
0.0
 10
272.1214689944057
 20
3.700899227291016
 30
0.0
 10
271.5185509283182
 20
3.296153736520449
 30
0.0
 10
270.9256696623672
 20
2.970891054307406
 30
0.0
 10
270.3520365913299
 20
2.72700684664989
 30
0.0
 10
269.8063478489249
 20
2.564393132706591
 30
0.0
 10
269.2961485908756
 20
2.48141682656235
 30
0.0
 10
268.8251271113605
 20
2.473053023568216
 30
0.0
 10
268.3967137601009
 20
2.541924992079548
 30
0.0
 10
268.0826297567657
 20
2.638412226171495
 30
0.0
 10
267.9238421550249
 20
2.739954267564408
 30
0.0
 10
267.8791678399153
 20
2.768522752158487
 30
0.0
  0
SPLINE
  5
105
330
1F
100
AcDbEntity
  8
0
  6
Continuous
 62
     7
370
    25
100
AcDbSpline
210
0.0
220
0.0
230
1.0
 70
     8
 71
     3
 72
    15
 73
    11
 74
     0
 42
0.00000001
 43
0.00000001
 40
0.0
 40
0.0
 40
0.0
 40
0.0
 40
0.1074097421049276
 40
0.2539169671489432
 40
0.3929814380601692
 40
0.5407618996651986
 40
0.6833144969440058
 40
0.8232090341053787
 40
0.9621129499355575
 40
1.0
 40
1.0
 40
1.0
 40
1.0
 10
247.8437201552237
 20
-31.96184568786839
 30
0.0
 10
247.9270750232194
 20
-32.01161918511867
 30
0.0
 10
248.1241261925434
 20
-32.12928388869688
 30
0.0
 10
248.3861659666553
 20
-32.39925367413693
 30
0.0
 10
248.6478513799915
 20
-32.76640594405828
 30
0.0
 10
248.8659696544848
 20
-33.21661672241379
 30
0.0
 10
249.0351149166366
 20
-33.74975867193575
 30
0.0
 10
249.144518448997
 20
-34.3449068098255
 30
0.0
 10
249.1828119452695
 20
-34.83819550903765
 30
0.0
 10
249.1851103199791
 20
-35.1288573186411
 30
0.0
 10
249.1856028713787
 20
-35.19114737105719
 30
0.0
  0
SPLINE
  5
106
330
1F
100
AcDbEntity
  8
0
  6
Continuous
 62
     7
370
    25
100
AcDbSpline
210
0.0
220
0.0
230
1.0
 70
     8
 71
     3
 72
    30
 73
    26
 74
     0
 42
0.00000001
 43
0.00000001
 40
0.0
 40
0.0
 40
0.0
 40
0.0
 40
0.0235275399734346
 40
0.0686597296569991
 40
0.1139314834503352
 40
0.159348940125741
 40
0.2049056516981453
 40
0.2505786465685976
 40
0.2963371083376463
 40
0.342146789192274
 40
0.387972049950115
 40
0.4337691693790944
 40
0.4794971221902637
 40
0.525119675795248
 40
0.5706021059950357
 40
0.6159141545708621
 40
0.6610360839968318
 40
0.7059700576329929
 40
0.7507602985167522
 40
0.7955131337027485
 40
0.8403957579970017
 40
0.8857879633324138
 40
0.93233224269506
 40
0.9809619222189696
 40
1.0
 40
1.0
 40
1.0
 40
1.0
 10
249.1856028713787
 20
-35.19114737105719
 30
0.0
 10
249.1838695932873
 20
-35.31216255828728
 30
0.0
 10
249.1788114186839
 20
-35.66531762885528
 30
0.0
 10
249.1216142277445
 20
-36.28525151819148
 30
0.0
 10
248.9915742973313
 20
-37.0545395846389
 30
0.0
 10
248.7957179276835
 20
-37.84933293408162
 30
0.0
 10
248.5365720172262
 20
-38.65819108170392
 30
0.0
 10
248.2163928970665
 20
-39.47059000403994
 30
0.0
 10
247.8388782890507
 20
-40.27562444972336
 30
0.0
 10
247.4086168940931
 20
-41.06259724042356
 30
0.0
 10
246.9311601021754
 20
-41.82104566574406
 30
0.0
 10
246.4129109405393
 20
-42.54095009231289
 30
0.0
 10
245.8610410795787
 20
-43.21291256722869
 30
0.0
 10
245.2833716758809
 20
-43.82834861387193
 30
0.0
 10
244.6882941534454
 20
-44.3796274882272
 30
0.0
 10
244.0846851203592
 20
-44.86023478086122
 30
0.0
 10
243.4817670542716
 20
-45.2649802716318
 30
0.0
 10
242.8888857883207
 20
-45.59024295384484
 30
0.0
 10
242.3152527172834
 20
-45.83412716150238
 30
0.0
 10
241.7695639748783
 20
-45.99674087544567
 30
0.0
 10
241.2593647168291
 20
-46.0797171815899
 30
0.0
 10
240.788343237314
 20
-46.08808098458403
 30
0.0
 10
240.3599298860543
 20
-46.01920901607271
 30
0.0
 10
240.0458458827192
 20
-45.92272178198073
 30
0.0
 10
239.8870582809784
 20
-45.82117974058784
 30
0.0
 10
239.8423839658687
 20
-45.79261125599376
 30
0.0
  0
LWPOLYLINE
  5
107
330
1F
100
AcDbEntity
  8
0
  6
Continuous
 62
     7
370
    25
100
AcDbPolyline
 90
      142
 70
   128
 43
0.0
 10
310.74929868
 20
0.5879381296
 10
310.7099896183
 20
2.6022075377
 10
310.5921404777
 20
4.5670925237
 10
310.3959852367
 20
6.4786919905
 10
310.1219133434
 20
8.3332106341
 10
309.7704689422
 20
10.1269664795
 10
309.3423497934
 20
11.8563981905
 10
308.838405888
 20
13.5180721405
 10
308.2596377599
 20
15.1086892297
 10
307.6071944997
 20
16.625091435
 10
306.8823714731
 20
18.0642680804
 10
306.0866077491
 20
19.4233618137
 10
305.2214832429
 20
20.6996742802
 10
304.2887155792
 20
21.8906714796
 10
303.2901566817
 20
22.9939887973
 10
302.2277890968
 20
24.0074356987
 10
301.103722057
 20
24.9290000789
 10
299.9201872933
 20
25.7568522571
 10
298.6795346045
 20
26.4893486094
 10
297.3842271916
 20
27.1250348323
 10
296.0368367675
 20
27.6626488293
 10
294.6400384514
 20
28.1011232179
 10
293.1966054568
 20
28.4395874476
 10
291.7094035864
 20
28.6773695291
 10
290.181385542
 20
28.8139973679
 10
288.6155850617
 20
28.8491997023
 10
287.0151108977
 20
28.7829066413
 10
285.3831406431
 20
28.6152498035
 10
283.7229144239
 20
28.3465620561
 10
282.0377284655
 20
27.9773768538
 10
280.3309285487
 20
27.5084271795
 10
278.6059033667
 20
26.9406440896
 10
276.8660777973
 20
26.2751548647
 10
275.1149061032
 20
25.513280772
 10
273.3558650737
 20
24.6565344422
 10
271.5924471218
 20
23.7066168657
 10
269.8281533508
 20
22.6654140159
 10
268.0664866025
 20
21.5349931047
 10
266.3109445033
 20
20.3175984782
 10
264.5650125195
 20
19.0156471608
 10
262.8321570375
 20
17.6317240562
 10
261.1158184813
 20
16.1685768157
 10
259.4194044823
 20
14.6291103828
 10
257.7462831135
 20
13.0163812254
 10
256.0997762025
 20
11.3335912681
 10
254.4831527363
 20
9.5840815346
 10
252.8996223713
 20
7.7713255144
 10
251.3523290603
 20
5.8989222669
 10
249.8443448111
 20
3.9705892755
 10
248.3786635867
 20
1.9901550666
 10
246.9581953615
 20
-0.0384483907
 10
245.5857603438
 20
-2.1111934922
 10
244.2640833762
 20
-4.2239649943
 10
242.995788526
 20
-6.3725681847
 10
241.7833938752
 20
-8.5527372108
 10
240.6293065212
 20
-10.7601435487
 10
239.5358177976
 20
-12.9904045974
 10
238.505098725
 20
-15.2390923801
 10
237.5391957008
 20
-17.5017423354
 10
236.640026436
 20
-19.7738621811
 10
235.8093761479
 20
-22.0509408337
 10
235.0488940158
 20
-24.3284573643
 10
234.3600899065
 20
-26.6018899746
 10
233.744331377
 20
-28.8667249746
 10
233.2028409587
 20
-31.1184657441
 10
232.7366937307
 20
-33.3526416602
 10
232.3468151852
 20
-35.5648169734
 10
232.03397939
 20
-37.7505996143
 10
231.7988074517
 20
-39.905649914
 10
231.6417662822
 20
-42.0256892195
 10
231.5631676723
 20
-44.106508389
 10
231.5631676723
 20
-46.1439761486
 10
231.6417662822
 20
-48.1340472947
 10
231.7988074517
 20
-50.0727707253
 10
232.03397939
 20
-51.9562972845
 10
232.3468151852
 20
-53.7808874046
 10
232.7366937307
 20
-55.5429185307
 10
233.2028409587
 20
-57.2388923133
 10
233.744331377
 20
-58.8654415534
 10
234.3600899065
 20
-60.419336888
 10
235.0488940158
 20
-61.8974932017
 10
235.8093761479
 20
-63.296975752
 10
236.640026436
 20
-64.6150059959
 10
237.5391957008
 20
-65.8489671063
 10
238.505098725
 20
-66.9964091677
 10
239.5358177976
 20
-68.05505404
 10
240.6293065212
 20
-69.0227998818
 10
241.7833938752
 20
-69.8977253234
 10
242.995788526
 20
-70.6780932813
 10
244.2640833762
 20
-71.3623544071
 10
245.5857603438
 20
-71.9491501637
 10
246.9581953615
 20
-72.4373155225
 10
248.3786635867
 20
-72.8258812762
 10
249.8443448111
 20
-73.1140759637
 10
251.3523290603
 20
-73.3013274009
 10
252.8996223713
 20
-73.3872638175
 10
254.4831527363
 20
-73.3717145948
 10
256.0997762025
 20
-73.2547106042
 10
257.7462831135
 20
-73.0364841463
 10
259.4194044823
 20
-72.7174684896
 10
261.1158184813
 20
-72.2982970102
 10
262.8321570375
 20
-71.7798019341
 10
264.5650125195
 20
-71.1630126854
 10
266.3109445033
 20
-70.4491538421
 10
268.0664866025
 20
-69.6396427047
 10
269.8281533508
 20
-68.7360864828
 10
271.5924471218
 20
-67.7402791035
 10
273.3558650737
 20
-66.6541976503
 10
275.1149061032
 20
-65.4799984373
 10
276.8660777973
 20
-64.2200127284
 10
278.6059033667
 20
-62.8767421086
 10
280.3309285487
 20
-61.4528535174
 10
282.0377284655
 20
-59.9511739537
 10
283.7229144239
 20
-58.3746848633
 10
285.3831406431
 20
-56.7265162194
 10
287.0151108977
 20
-55.0099403083
 10
288.6155850617
 20
-53.2283652325
 10
290.181385542
 20
-51.3853281445
 10
291.7094035864
 20
-49.4844882237
 10
293.1966054568
 20
-47.529619412
 10
294.6400384514
 20
-45.5246029203
 10
296.0368367675
 20
-43.4734195234
 10
297.3842271916
 20
-41.3801416559
 10
298.6795346045
 20
-39.2489253274
 10
299.9201872933
 20
-37.0840018706
 10
301.103722057
 20
-34.8896695406
 10
302.2277890968
 20
-32.6702849811
 10
303.2901566817
 20
-30.4302545747
 10
304.2887155792
 20
-28.1740256945
 10
305.2214832429
 20
-25.9060778741
 10
306.0866077491
 20
-23.6309139139
 10
306.8823714731
 20
-21.3530509414
 10
307.6071944997
 20
-19.0770114426
 10
308.2596377599
 20
-16.8073142834
 10
308.838405888
 20
-14.5484657372
 10
309.3423497934
 20
-12.3049505388
 10
309.7704689422
 20
-10.0812229801
 10
310.1219133434
 20
-7.8816980661
 10
310.3959852367
 20
-5.71074275
 10
310.5921404777
 20
-3.5726672627
 10
310.7099896183
 20
-1.4717165551
 10
310.74929868
 20
0.5879381296
  0
ARC
  5
108
330
1F
100
AcDbEntity
  8
0
  6
Continuous
 62
     7
370
    25
100
AcDbCircle
 10
252.8956762799
 20
-55.527943291
 30
0.0
 40
19.07108549942247
100
AcDbArc
 50
232.6223377114
 51
247.7242879554
  0
ARC
  5
109
330
1F
100
AcDbEntity
  8
0
  6
Continuous
 62
     7
370
    25
100
AcDbCircle
 10
290.8236109051
 20
10.1721493637
 30
0.0
 40
19.06677223000499
100
AcDbArc
 50
52.41313024
 51
67.0262299695
  0
ARC
  5
10A
330
1F
100
AcDbEntity
  8
0
  6
Continuous
 62
     7
370
    25
100
AcDbCircle
 10
300.6843375587
 20
4.4006910284
 30
0.0
 40
19.13528022655636
100
AcDbArc
 50
52.248241905
 51
59.9874594855
  0
ARC
  5
10B
330
1F
100
AcDbEntity
  8
0
  6
Continuous
 62
     7
370
    25
100
AcDbCircle
 10
262.8017570309
 20
-61.2264667738
 30
0.0
 40
19.08864428168127
100
AcDbArc
 50
240.0097105848
 51
247.117313831
  0
LWPOLYLINE
  5
10C
330
1F
100
AcDbEntity
  8
0
  6
Continuous
 62
     7
370
    25
100
AcDbPolyline
 90
       57
 70
   128
 43
0.0
 10
277.5152799642
 20
-50.9734956895
 10
277.475264713
 20
-51.8194080803
 10
277.3557221744
 20
-52.7008832576
 10
277.1581556651
 20
-53.6068361597
 10
276.8850496987
 20
-54.525873903
 10
276.5398387412
 20
-55.4464390548
 10
276.1268640205
 20
-56.3569549742
 10
275.6513189336
 20
-57.2459713951
 10
275.1191837356
 20
-58.1023084204
 10
274.5371503356
 20
-58.9151971149
 10
273.9125381411
 20
-59.6744149317
 10
273.2532020131
 20
-60.3704142664
 10
272.5674334858
 20
-60.9944425233
 10
271.8638564963
 20
-61.5386521852
 10
271.1513189336
 20
-61.9961994997
 10
270.4387813708
 20
-62.3613305439
 10
269.7352043813
 20
-62.6294535831
 10
269.049435854
 20
-62.7971968145
 10
268.390099726
 20
-62.8624507696
 10
267.7654875315
 20
-62.824394842
 10
267.1834541315
 20
-62.6835076072
 10
266.6513189336
 20
-62.4415608039
 10
266.1757738466
 20
-62.1015970535
 10
265.7627991259
 20
-61.6678915974
 10
265.4175881684
 20
-61.1458985333
 10
265.144482202
 20
-60.542182227
 10
264.9469156927
 20
-59.8643347612
 10
264.8273731541
 20
-59.1208804611
 10
264.7873579029
 20
-58.3211686959
 10
264.8273731541
 20
-57.4752563051
 10
264.9469156927
 20
-56.5937811278
 10
265.144482202
 20
-55.6878282258
 10
265.4175881684
 20
-54.7687904825
 10
265.7627991259
 20
-53.8482253306
 10
266.1757738466
 20
-52.9377094113
 10
266.6513189336
 20
-52.0486929903
 10
267.1834541315
 20
-51.1923559651
 10
267.7654875315
 20
-50.3794672706
 10
268.390099726
 20
-49.6202494537
 10
269.049435854
 20
-48.9242501191
 10
269.7352043813
 20
-48.3002218621
 10
270.4387813708
 20
-47.7560122003
 10
271.1513189336
 20
-47.2984648858
 10
271.8638564963
 20
-46.9333338415
 10
272.5674334858
 20
-46.6652108024
 10
273.2532020131
 20
-46.497467571
 10
273.9125381411
 20
-46.4322136159
 10
274.5371503356
 20
-46.4702695434
 10
275.1191837356
 20
-46.6111567782
 10
275.6513189336
 20
-46.8531035815
 10
276.1268640205
 20
-47.193067332
 10
276.5398387412
 20
-47.6267727881
 10
276.8850496987
 20
-48.1487658522
 10
277.1581556651
 20
-48.7524821585
 10
277.3557221744
 20
-49.4303296243
 10
277.475264713
 20
-50.1737839244
 10
277.5152799642
 20
-50.9734956895
  0
LWPOLYLINE
  5
10D
330
1F
100
AcDbEntity
  8
0
  6
Continuous
 62
     7
370
    25
100
AcDbPolyline
 90
       57
 70
   128
 43
0.0
 10
277.5152799642
 20
13.778190693
 10
277.475264713
 20
12.9322783022
 10
277.3557221744
 20
12.0508031249
 10
277.1581556651
 20
11.1448502229
 10
276.8850496987
 20
10.2258124795
 10
276.5398387412
 20
9.3052473277
 10
276.1268640205
 20
8.3947314083
 10
275.6513189336
 20
7.5057149874
 10
275.1191837356
 20
6.6493779622
 10
274.5371503356
 20
5.8364892677
 10
273.9125381411
 20
5.0772714508
 10
273.2532020131
 20
4.3812721162
 10
272.5674334858
 20
3.7572438592
 10
271.8638564963
 20
3.2130341974
 10
271.1513189336
 20
2.7554868828
 10
270.4387813708
 20
2.3903558386
 10
269.7352043814
 20
2.1222327994
 10
269.049435854
 20
1.9544895681
 10
268.390099726
 20
1.889235613
 10
267.7654875315
 20
1.9272915405
 10
267.1834541315
 20
2.0681787753
 10
266.6513189336
 20
2.3101255786
 10
266.1757738466
 20
2.6500893291
 10
265.7627991259
 20
3.0837947852
 10
265.4175881684
 20
3.6057878492
 10
265.144482202
 20
4.2095041556
 10
264.9469156927
 20
4.8873516214
 10
264.8273731541
 20
5.6308059214
 10
264.7873579029
 20
6.4305176866
 10
264.8273731541
 20
7.2764300774
 10
264.9469156927
 20
8.1579052547
 10
265.144482202
 20
9.0638581567
 10
265.4175881684
 20
9.9828959001
 10
265.7627991259
 20
10.9034610519
 10
266.1757738466
 20
11.8139769713
 10
266.6513189336
 20
12.7029933922
 10
267.1834541315
 20
13.5593304174
 10
267.7654875315
 20
14.372219112
 10
268.390099726
 20
15.1314369288
 10
269.049435854
 20
15.8274362634
 10
269.7352043814
 20
16.4514645204
 10
270.4387813708
 20
16.9956741823
 10
271.1513189336
 20
17.4532214968
 10
271.8638564963
 20
17.818352541
 10
272.5674334858
 20
18.0864755802
 10
273.2532020131
 20
18.2542188116
 10
273.9125381411
 20
18.3194727666
 10
274.5371503356
 20
18.2814168391
 10
275.1191837356
 20
18.1405296043
 10
275.6513189336
 20
17.898582801
 10
276.1268640205
 20
17.5586190506
 10
276.5398387412
 20
17.1249135944
 10
276.8850496987
 20
16.6029205304
 10
277.1581556651
 20
15.999204224
 10
277.3557221744
 20
15.3213567582
 10
277.475264713
 20
14.5779024582
 10
277.5152799642
 20
13.778190693
  0
LWPOLYLINE
  5
10E
330
1F
100
AcDbEntity
  8
0
  6
Continuous
 62
     7
370
    25
100
AcDbPolyline
 90
       89
 70
   128
 43
0.0
 10
286.7076681197
 20
-13.2909997714
 10
286.6680323249
 20
-14.5954108292
 10
286.5493269154
 20
-15.9389374219
 10
286.3521567867
 20
-17.3147332459
 10
286.0775266727
 20
-18.715787561
 10
285.7268360255
 20
-20.1349609156
 10
285.3018718841
 20
-21.5650215276
 10
284.8047997686
 20
-22.9986821359
 10
284.2381526443
 20
-24.4286371347
 10
283.6048180153
 20
-25.847599801
 10
282.9080232095
 20
-27.2483394265
 10
282.1513189336
 20
-28.6237181629
 10
281.3385611791
 20
-29.9667273956
 10
280.4738915732
 20
-31.2705234574
 10
279.5617162742
 20
-32.5284625024
 10
278.6066835181
 20
-33.7341343615
 10
277.613659933
 20
-34.8813952073
 10
276.5877057394
 20
-35.9643988615
 10
275.5340489649
 20
-36.9776265858
 10
274.4580588027
 20
-37.9159152039
 10
273.3652182521
 20
-38.7744834121
 10
272.2610961781
 20
-39.5489561436
 10
271.1513189336
 20
-40.235386863
 10
270.0415416891
 20
-40.8302776764
 10
268.937419615
 20
-41.3305971569
 10
267.8445790644
 20
-41.733795791
 10
266.7685889022
 20
-42.0378189708
 10
265.7149321277
 20
-42.2411174639
 10
264.6889779342
 20
-42.3426553078
 10
263.6959543491
 20
-42.341915089
 10
262.740921593
 20
-42.2389005793
 10
261.8287462939
 20
-42.0341367173
 10
260.964076688
 20
-41.7286669324
 10
260.1513189336
 20
-41.3240478288
 10
259.3946146577
 20
-40.8223412527
 10
258.6978198519
 20
-40.2261037857
 10
258.0644852228
 20
-39.5383737173
 10
257.4978380985
 20
-38.7626555624
 10
257.000765983
 20
-37.9029022027
 10
256.5758018416
 20
-36.9634947445
 10
256.2251111944
 20
-35.9492201927
 10
255.9504810804
 20
-34.8652470579
 10
255.7533109518
 20
-33.7170990189
 10
255.6346055423
 20
-32.5106267747
 10
255.5949697475
 20
-31.2519782315
 10
255.6346055423
 20
-29.9475671737
 10
255.7533109518
 20
-28.604040581
 10
255.9504810804
 20
-27.2282447571
 10
256.2251111944
 20
-25.827190442
 10
256.5758018416
 20
-24.4080170874
 10
257.000765983
 20
-22.9779564754
 10
257.4978380985
 20
-21.5442958671
 10
258.0644852228
 20
-20.1143408683
 10
258.6978198519
 20
-18.6953782019
 10
259.3946146577
 20
-17.2946385765
 10
260.1513189336
 20
-15.91925984
 10
260.964076688
 20
-14.5762506073
 10
261.8287462939
 20
-13.2724545455
 10
262.740921593
 20
-12.0145155006
 10
263.6959543491
 20
-10.8088436415
 10
264.6889779342
 20
-9.6615827956
 10
265.7149321277
 20
-8.5785791414
 10
266.7685889022
 20
-7.5653514171
 10
267.8445790644
 20
-6.627062799
 10
268.937419615
 20
-5.7684945908
 10
270.0415416891
 20
-4.9940218593
 10
271.1513189336
 20
-4.30759114
 10
272.2610961781
 20
-3.7127003265
 10
273.3652182521
 20
-3.212380846
 10
274.4580588027
 20
-2.809182212
 10
275.5340489649
 20
-2.5051590322
 10
276.5877057394
 20
-2.301860539
 10
277.613659933
 20
-2.2003226951
 10
278.6066835181
 20
-2.201062914
 10
279.5617162742
 20
-2.3040774236
 10
280.4738915732
 20
-2.5088412857
 10
281.3385611791
 20
-2.8143110705
 10
282.1513189336
 20
-3.2189301741
 10
282.9080232095
 20
-3.7206367503
 10
283.6048180153
 20
-4.3168742173
 10
284.2381526443
 20
-5.0046042856
 10
284.8047997686
 20
-5.7803224406
 10
285.3018718841
 20
-6.6400758002
 10
285.7268360255
 20
-7.5794832584
 10
286.0775266727
 20
-8.5937578103
 10
286.3521567867
 20
-9.677730945
 10
286.5493269154
 20
-10.8258789841
 10
286.6680323249
 20
-12.0323512282
 10
286.7076681197
 20
-13.2909997714
  0
LWPOLYLINE
  5
10F
330
1F
100
AcDbEntity
  8
0
  6
Continuous
 62
     7
370
    25
100
AcDbPolyline
 90
       57
 70
   128
 43
0.0
 10
305.5520638383
 20
-2.4123616814
 10
305.5120485871
 20
-3.2582740722
 10
305.3925060485
 20
-4.1397492495
 10
305.1949395392
 20
-5.0457021515
 10
304.9218335728
 20
-5.9647398949
 10
304.5766226152
 20
-6.8853050467
 10
304.1636478946
 20
-7.795820966
 10
303.6881028076
 20
-8.684837387
 10
303.1559676097
 20
-9.5411744122
 10
302.5739342096
 20
-10.3540631067
 10
301.9493220152
 20
-11.1132809236
 10
301.2899858871
 20
-11.8092802582
 10
300.6042173598
 20
-12.4333085152
 10
299.9006403703
 20
-12.977518177
 10
299.1881028076
 20
-13.4350654916
 10
298.4755652449
 20
-13.8001965358
 10
297.7719882554
 20
-14.068319575
 10
297.0862197281
 20
-14.2360628063
 10
296.4268836
 20
-14.3013167614
 10
295.8022714056
 20
-14.2632608339
 10
295.2202380055
 20
-14.1223735991
 10
294.6881028076
 20
-13.8804267958
 10
294.2125577206
 20
-13.5404630453
 10
293.799583
 20
-13.1067575892
 10
293.4543720424
 20
-12.5847645252
 10
293.181266076
 20
-11.9810482188
 10
292.9836995668
 20
-11.303200753
 10
292.8641570281
 20
-10.5597464529
 10
292.8241417769
 20
-9.7600346878
 10
292.8641570281
 20
-8.914122297
 10
292.9836995668
 20
-8.0326471197
 10
293.181266076
 20
-7.1266942177
 10
293.4543720424
 20
-6.2076564743
 10
293.799583
 20
-5.2870913225
 10
294.2125577206
 20
-4.3765754031
 10
294.6881028076
 20
-3.4875589822
 10
295.2202380055
 20
-2.631221957
 10
295.8022714056
 20
-1.8183332624
 10
296.4268836
 20
-1.0591154456
 10
297.0862197281
 20
-0.3631161109
 10
297.7719882554
 20
0.260912146
 10
298.4755652449
 20
0.8051218079
 10
299.1881028076
 20
1.2626691224
 10
299.9006403703
 20
1.6278001666
 10
300.6042173598
 20
1.8959232058
 10
301.2899858871
 20
2.0636664372
 10
301.9493220152
 20
2.1289203923
 10
302.5739342096
 20
2.0908644647
 10
303.1559676097
 20
1.9499772299
 10
303.6881028076
 20
1.7080304266
 10
304.1636478946
 20
1.3680666762
 10
304.5766226152
 20
0.9343612201
 10
304.9218335728
 20
0.412368156
 10
305.1949395392
 20
-0.1913481504
 10
305.3925060485
 20
-0.8691956161
 10
305.5120485871
 20
-1.6126499162
 10
305.5520638383
 20
-2.4123616814
  0
LWPOLYLINE
  5
110
330
1F
100
AcDbEntity
  8
0
  6
Continuous
 62
     7
370
    25
100
AcDbPolyline
 90
       57
 70
   128
 43
0.0
 10
249.4784960902
 20
-34.7829433151
 10
249.438480839
 20
-35.6288557059
 10
249.3189383004
 20
-36.5103308833
 10
249.1213717911
 20
-37.4162837853
 10
248.8482658247
 20
-38.3353215286
 10
248.5030548671
 20
-39.2558866804
 10
248.0900801465
 20
-40.1664025998
 10
247.6145350595
 20
-41.0554190208
 10
247.0823998616
 20
-41.911756046
 10
246.5003664615
 20
-42.7246447405
 10
245.8757542671
 20
-43.4838625574
 10
245.216418139
 20
-44.179861892
 10
244.5306496117
 20
-44.8038901489
 10
243.8270726223
 20
-45.3480998108
 10
243.1145350595
 20
-45.8056471253
 10
242.4019974968
 20
-46.1707781695
 10
241.6984205073
 20
-46.4389012087
 10
241.01265198
 20
-46.6066444401
 10
240.3533158519
 20
-46.6718983952
 10
239.7287036575
 20
-46.6338424677
 10
239.1466702575
 20
-46.4929552329
 10
238.6145350595
 20
-46.2510084295
 10
238.1389899725
 20
-45.9110446791
 10
237.7260152519
 20
-45.477339223
 10
237.3808042943
 20
-44.9553461589
 10
237.1076983279
 20
-44.3516298526
 10
236.9101318187
 20
-43.6737823868
 10
236.79058928
 20
-42.9303280867
 10
236.7505740288
 20
-42.1306163216
 10
236.79058928
 20
-41.2847039308
 10
236.9101318187
 20
-40.4032287534
 10
237.1076983279
 20
-39.4972758514
 10
237.3808042943
 20
-38.5782381081
 10
237.7260152519
 20
-37.6576729563
 10
238.1389899725
 20
-36.7471570369
 10
238.6145350595
 20
-35.8581406159
 10
239.1466702575
 20
-35.0018035907
 10
239.7287036575
 20
-34.1889148962
 10
240.3533158519
 20
-33.4296970793
 10
241.01265198
 20
-32.7336977447
 10
241.6984205073
 20
-32.1096694878
 10
242.4019974968
 20
-31.5654598259
 10
243.1145350595
 20
-31.1079125114
 10
243.8270726223
 20
-30.7427814672
 10
244.5306496117
 20
-30.474658428
 10
245.216418139
 20
-30.3069151966
 10
245.8757542671
 20
-30.2416612415
 10
246.5003664615
 20
-30.279717169
 10
247.0823998616
 20
-30.4206044038
 10
247.6145350595
 20
-30.6625512072
 10
248.0900801465
 20
-31.0025149576
 10
248.5030548671
 20
-31.4362204137
 10
248.8482658247
 20
-31.9582134778
 10
249.1213717911
 20
-32.5619297841
 10
249.3189383004
 20
-33.2397772499
 10
249.438480839
 20
-33.98323155
 10
249.4784960902
 20
-34.7829433151
  0
LINE
  5
111
330
1F
100
AcDbEntity
  8
0
  6
Continuous
 62
     7
370
    25
100
AcDbLine
 10
303.9315060053
 20
0.4124568539
 30
0.0
 11
303.8948845193
 21
0.4339886586
 31
0.0
  0
LINE
  5
112
330
1F
100
AcDbEntity
  8
0
  6
Continuous
 62
     7
370
    25
100
AcDbLine
 10
275.8947221313
 20
-48.1486771543
 30
0.0
 11
275.8581006453
 21
-48.1271453496
 31
0.0
  0
LINE
  5
113
330
1F
100
AcDbEntity
  8
0
  6
Continuous
 62
     7
370
    25
100
AcDbLine
 10
282.3575724074
 20
-4.4926669474
 30
0.0
 11
282.252503708
 21
-4.4332139071
 31
0.0
  0
LINE
  5
114
330
1F
100
AcDbEntity
  8
0
  6
Continuous
 62
     7
370
    25
100
AcDbLine
 10
275.8947221313
 20
16.6030092283
 30
0.0
 11
275.8581006453
 21
16.6245410329
 31
0.0
  0
LINE
  5
115
330
1F
100
AcDbEntity
  8
0
  6
Continuous
 62
     7
370
    25
100
AcDbLine
 10
247.8579382572
 20
-31.9581247799
 30
0.0
 11
247.8213167712
 21
-31.9365929752
 31
0.0
  0
LWPOLYLINE
  5
116
330
1F
100
AcDbEntity
  8
0
  6
Continuous
 62
     1
370
    25
100
AcDbPolyline
 90
       53
 70
   128
 43
0.0
 10
312.1635122424
 20
0.5879381296
 10
312.1240626926
 20
-1.4935805831
 10
312.0057912675
 20
-3.6165721058
 10
311.8089294891
 20
-5.776880583
 10
311.5338627234
 20
-7.9702771094
 10
311.1811294266
 20
-10.1924680082
 10
310.7514200907
 20
-12.4391032365
 10
310.2455758919
 20
-14.7057849003
 10
309.664587044
 20
-16.9880758637
 10
309.0095908599
 20
-19.2815084351
 10
308.2818695254
 20
-21.5815931124
 10
307.4828475892
 20
-23.8838273719
 10
306.6140891742
 20
-26.183704482
 10
305.6772949159
 20
-28.4767223252
 10
304.674298633
 20
-30.7583922113
 10
303.6070637378
 20
-33.0242476645
 10
302.4776793928
 20
-35.2698531663
 10
301.2883564208
 20
-37.4908128384
 10
300.0414229775
 20
-39.682779048
 10
298.7393199935
 20
-41.8414609183
 10
297.3845963966
 20
-43.9626327282
 10
295.9799041219
 20
-46.0421421842
 10
294.5279929205
 20
-48.075918549
 10
293.0317049767
 20
-50.0599806097
 10
291.4939693445
 20
-51.9904444718
 10
289.9177962135
 20
-53.8635311616
 10
288.3062710167
 20
-55.6755740239
 10
286.6625483904
 20
-57.4230258997
 10
284.9898459987
 20
-59.1024660699
 10
283.2914382351
 20
-60.7106069515
 10
281.5706498126
 20
-62.2443005333
 10
279.8308492554
 20
-63.7005445379
 10
278.0754423047
 20
-65.0764882994
 10
276.3078652521
 20
-66.3694383433
 10
274.5315782126
 20
-67.5768636592
 10
272.7500583516
 20
-68.6964006552
 10
270.9667930779
 20
-69.7258577851
 10
269.1852732169
 20
-70.6632198383
 10
267.4089861774
 20
-71.5066518845
 10
265.6414091248
 20
-72.2545028659
 10
263.8860021741
 20
-72.905308829
 10
262.1462016169
 20
-73.4577957907
 10
260.4254131944
 20
-73.9108822317
 10
258.7270054308
 20
-74.2636812141
 10
257.0543030391
 20
-74.5155021173
 10
255.4105804128
 20
-74.6658519901
 10
253.799055216
 20
-74.7144365155
 10
252.222882085
 20
-74.661160587
 10
250.6851464528
 20
-74.5061284947
 10
249.188858509
 20
-74.2496437213
 10
247.7369473076
 20
-73.8922083478
 10
246.3322550329
 20
-73.4345220706
 10
245.6665157638
 20
-73.1757629965
  0
LWPOLYLINE
  5
117
330
1F
100
AcDbEntity
  8
0
  6
Continuous
 62
     1
370
    25
100
AcDbPolyline
 90
       18
 70
   128
 43
0.0
 10
302.4536475935
 20
25.2812211385
 10
302.4776793928
 20
25.2627048547
 10
303.6070637378
 20
24.3210587621
 10
304.674298633
 20
23.2874064907
 10
305.6772949159
 20
22.1637714633
 10
306.6140891742
 20
20.9523532483
 10
307.4828475892
 20
19.6555232537
 10
308.2818695254
 20
18.2758200851
 10
309.0095908599
 20
16.8159445762
 10
309.664587044
 20
15.2787545019
 10
310.2455758919
 20
13.667258984
 10
310.7514200907
 20
11.9846126007
 10
311.1811294266
 20
10.2341092112
 10
311.5338627234
 20
8.4191755081
 10
311.8089294891
 20
6.5433643093
 10
312.0057912675
 20
4.6103476035
 10
312.1240626926
 20
2.6239093615
 10
312.1635122424
 20
0.5879381296
  0
LWPOLYLINE
  5
118
330
1F
100
AcDbEntity
  8
0
  6
Continuous
 62
     1
370
    25
100
AcDbPolyline
 90
       17
 70
   128
 43
0.0
 10
322.063007179
 20
-5.1269186532
 10
322.0235576292
 20
-3.0909474212
 10
321.9052862041
 20
-1.1045091793
 10
321.7084244257
 20
0.8285075266
 10
321.43335766
 20
2.7043187253
 10
321.0806243632
 20
4.5192524284
 10
320.6509150273
 20
6.2697558179
 10
320.1450708285
 20
7.9524022013
 10
319.5640819806
 20
9.5638977192
 10
318.9090857965
 20
11.1010877934
 10
318.181364462
 20
12.5609633023
 10
317.3823425258
 20
13.9406664709
 10
316.5135841108
 20
15.2374964656
 10
315.5767898525
 20
16.4489146806
 10
314.5737935696
 20
17.572549708
 10
313.5065586744
 20
18.6062019794
 10
312.3997510254
 20
19.5303981192
  0
LWPOLYLINE
  5
119
330
1F
100
AcDbEntity
  8
0
  6
Continuous
 62
     1
370
    25
100
AcDbPolyline
 90
       53
 70
   128
 43
0.0
 10
255.3792223509
 20
-78.8128910675
 10
256.2317499695
 20
-79.1493788534
 10
257.6364422442
 20
-79.6070651306
 10
259.0883534456
 20
-79.9645005041
 10
260.5846413894
 20
-80.2209852775
 10
262.1223770216
 20
-80.3760173697
 10
263.6985501526
 20
-80.4292932982
 10
265.3100753494
 20
-80.3807087729
 10
266.9537979757
 20
-80.2303589001
 10
268.6265003674
 20
-79.9785379969
 10
270.324908131
 20
-79.6257390145
 10
272.0456965535
 20
-79.1726525735
 10
273.7854971107
 20
-78.6201656118
 10
275.5409040614
 20
-77.9693596486
 10
277.308481114
 20
-77.2215086673
 10
279.0847681535
 20
-76.3780766211
 10
280.8662880145
 20
-75.4407145679
 10
282.6495532882
 20
-74.4112574379
 10
284.4310731492
 20
-73.2917204419
 10
286.2073601887
 20
-72.0842951261
 10
287.9749372413
 20
-70.7913450822
 10
289.730344192
 20
-69.4154013207
 10
291.4701447492
 20
-67.959157316
 10
293.1909331717
 20
-66.4254637343
 10
294.8893409353
 20
-64.8173228526
 10
296.562043327
 20
-63.1378826824
 10
298.2057659533
 20
-61.3904308066
 10
299.8172911501
 20
-59.5783879443
 10
301.3934642811
 20
-57.7053012546
 10
302.9311999133
 20
-55.7748373925
 10
304.4274878571
 20
-53.7907753317
 10
305.8793990585
 20
-51.756998967
 10
307.2840913332
 20
-49.6774895109
 10
308.6388149301
 20
-47.556317701
 10
309.9409179141
 20
-45.3976358307
 10
311.1878513574
 20
-43.2056696211
 10
312.3771743294
 20
-40.984709949
 10
313.5065586744
 20
-38.7391044473
 10
314.5737935696
 20
-36.4732489941
 10
315.5767898525
 20
-34.1915791079
 10
316.5135841108
 20
-31.8985612648
 10
317.3823425258
 20
-29.5986841547
 10
318.181364462
 20
-27.2964498952
 10
318.9090857965
 20
-24.9963652178
 10
319.5640819806
 20
-22.7029326465
 10
320.1450708285
 20
-20.420641683
 10
320.6509150273
 20
-18.1539600193
 10
321.0806243632
 20
-15.907324791
 10
321.43335766
 20
-13.6851338921
 10
321.7084244257
 20
-11.4917373658
 10
321.9052862041
 20
-9.3314288886
 10
322.0235576292
 20
-7.2084373658
 10
322.063007179
 20
-5.1269186532
  0
LWPOLYLINE
  5
11A
330
1F
100
AcDbEntity
  8
0
  6
Continuous
 62
     1
370
    25
100
AcDbPolyline
 90
       29
 70
   128
 43
0.0
 10
303.8948845193
 20
0.4339886586
 10
303.7134900493
 20
0.5296120283
 10
303.1930395326
 20
0.7168240227
 10
302.6262947124
 20
0.8028062076
 10
302.0212114437
 20
0.7863515816
 10
301.3862837693
 20
0.6676911315
 10
300.7304246818
 20
0.44849059
 10
300.0628410052
 20
0.1318270521
 10
299.392904151
 20
-0.2778542201
 10
298.7300185641
 20
-0.7748021997
 10
298.083489705
 20
-1.3520408264
 10
297.4623934217
 20
-2.0014669351
 10
296.8754485447
 20
-2.7139640069
 10
296.3308944933
 20
-3.4795301446
 10
295.8363756127
 20
-4.2874184779
 10
295.3988338642
 20
-5.1262880255
 10
295.0244113746
 20
-5.9843628977
 10
294.718364215
 20
-6.8495976042
 10
294.4849886167
 20
-7.7098461465
 10
294.3275606614
 20
-8.5530325205
 10
294.2482902927
 20
-9.3673202381
 10
294.2482902927
 20
-10.1412784844
 10
294.3275606614
 20
-10.8640425824
 10
294.4849886167
 20
-11.5254665083
 10
294.718364215
 20
-12.1162653201
 10
295.0244113746
 20
-12.6281454975
 10
295.3988338642
 20
-13.053921365
 10
295.8363756127
 20
-13.3876159626
 10
295.915789231
 20
-13.4343680446
  0
LWPOLYLINE
  5
11B
330
1F
100
AcDbEntity
  8
0
  6
Continuous
 62
     1
370
    25
100
AcDbPolyline
 90
       29
 70
   128
 43
0.0
 10
275.8581006453
 20
-48.1271453496
 10
275.6767061752
 20
-48.0315219799
 10
275.1562556585
 20
-47.8443099854
 10
274.5895108384
 20
-47.7583278005
 10
273.9844275697
 20
-47.7747824266
 10
273.3494998952
 20
-47.8934428766
 10
272.6936408077
 20
-48.1126434182
 10
272.0260571312
 20
-48.429306956
 10
271.3561202769
 20
-48.8389882283
 10
270.69323469
 20
-49.3359362079
 10
270.0467058309
 20
-49.9131748345
 10
269.4256095477
 20
-50.5626009433
 10
268.8386646706
 20
-51.275098015
 10
268.2941106192
 20
-52.0406641528
 10
267.7995917387
 20
-52.8485524861
 10
267.3620499901
 20
-53.6874220336
 10
266.9876275005
 20
-54.5454969058
 10
266.6815803409
 20
-55.4107316124
 10
266.4482047426
 20
-56.2709801546
 10
266.2907767874
 20
-57.1141665287
 10
266.2115064187
 20
-57.9284542462
 10
266.2115064187
 20
-58.7024124926
 10
266.2907767874
 20
-59.4251765905
 10
266.4482047426
 20
-60.0866005164
 10
266.6815803409
 20
-60.6773993282
 10
266.9876275005
 20
-61.1892795057
 10
267.3620499901
 20
-61.6150553732
 10
267.7995917387
 20
-61.9487499707
 10
267.879005357
 20
-61.9955020527
  0
LWPOLYLINE
  5
11C
330
1F
100
AcDbEntity
  8
0
  6
Continuous
 62
     1
370
    25
100
AcDbPolyline
 90
       45
 70
   128
 43
0.0
 10
282.252503708
 20
-4.4332139071
 10
282.1649016866
 20
-4.3854492182
 10
281.3570854718
 20
-4.0159665474
 10
280.4985897973
 20
-3.7460629329
 10
279.5939951092
 20
-3.5771784272
 10
278.6481278113
 20
-3.5102141022
 10
277.666034515
 20
-3.5455272415
 10
276.652955113
 20
-3.6829294343
 10
275.6142948222
 20
-3.9216875803
 10
274.5555953446
 20
-4.2605278017
 10
273.4825053001
 20
-4.6976422392
 10
272.4007500882
 20
-5.2306986982
 10
271.3161013412
 20
-5.8568530918
 10
270.2343461294
 20
-6.5727646153
 10
269.1612560849
 20
-7.3746135712
 10
268.1025566073
 20
-8.2581217482
 10
267.0638963165
 20
-9.2185752479
 10
266.0508169145
 20
-10.2508496355
 10
265.0687236182
 20
-11.3494372803
 10
264.1228563203
 20
-12.508476742
 10
263.2182616322
 20
-13.7217840435
 10
262.3597659577
 20
-14.9828856654
 10
261.5519497429
 20
-16.285053085
 10
260.7991230367
 20
-17.6213386757
 10
260.1053024954
 20
-18.9846127756
 10
259.4741899517
 20
-20.3676017275
 10
258.9091526642
 20
-21.7629266871
 10
258.4132053511
 20
-23.1631429919
 10
257.9889941061
 20
-24.5607798821
 10
257.6387822796
 20
-25.9483803602
 10
257.3644384033
 20
-27.3185409773
 10
257.1674262205
 20
-28.6639513337
 10
257.0487968764
 20
-29.9774330829
 10
257.0091833098
 20
-31.2519782315
 10
257.0487968764
 20
-32.4807865298
 10
257.1674262205
 20
-33.6573017537
 10
257.3644384033
 20
-34.7752466854
 10
257.6387822796
 20
-35.8286566052
 10
257.9889941061
 20
-36.8119111152
 10
258.4132053511
 20
-37.7197641273
 10
258.9091526642
 20
-38.5473718528
 10
259.4741899517
 20
-39.2903186464
 10
260.1053024954
 20
-39.9446405655
 10
260.7991230367
 20
-40.5068465196
 10
261.3356646975
 20
-40.8530254572
  0
LWPOLYLINE
  5
11D
330
1F
100
AcDbEntity
  8
0
  6
Continuous
 62
     1
370
    25
100
AcDbPolyline
 90
       31
 70
   128
 43
0.0
 10
267.5014495009
 20
-41.4211480244
 10
267.2639333399
 20
-40.4901034682
 10
267.0669211571
 20
-39.3721585364
 10
266.948291813
 20
-38.1956433125
 10
266.9086782464
 20
-36.9668350143
 10
266.948291813
 20
-35.6922898656
 10
267.0669211571
 20
-34.3788081164
 10
267.2639333399
 20
-33.0333977601
 10
267.5382772162
 20
-31.663237143
 10
267.8884890427
 20
-30.2756366649
 10
268.3127002877
 20
-28.8779997746
 10
268.8086476008
 20
-27.4777834698
 10
269.3736848883
 20
-26.0824585103
 10
270.004797432
 20
-24.6994695583
 10
270.6986179734
 20
-23.3361954584
 10
271.4514446795
 20
-21.9999098678
 10
272.2592608943
 20
-20.6977424482
 10
273.1177565688
 20
-19.4366408262
 10
274.022351257
 20
-18.2233335247
 10
274.9682185548
 20
-17.064294063
 10
275.9503118511
 20
-15.9657064182
 10
276.9633912531
 20
-14.9334320307
 10
278.0020515439
 20
-13.9729785309
 10
279.0607510215
 20
-13.0894703539
 10
280.133841066
 20
-12.2876213981
 10
281.2155962779
 20
-11.5717098745
 10
282.3002450249
 20
-10.945555481
 10
283.3820002367
 20
-10.412499022
 10
284.4550902812
 20
-9.9753845845
 10
285.5137897588
 20
-9.6365443631
 10
285.9117240627
 20
-9.5338061121
  0
LWPOLYLINE
  5
11E
330
1F
100
AcDbEntity
  8
0
  6
Continuous
 62
     1
370
    25
100
AcDbPolyline
 90
       29
 70
   128
 43
0.0
 10
275.8581006453
 20
16.6245410329
 10
275.6767061752
 20
16.7201644027
 10
275.1562556585
 20
16.9073763971
 10
274.5895108384
 20
16.993358582
 10
273.9844275697
 20
16.976903956
 10
273.3494998952
 20
16.8582435059
 10
272.6936408077
 20
16.6390429644
 10
272.0260571312
 20
16.3223794265
 10
271.356120277
 20
15.9126981543
 10
270.69323469
 20
15.4157501747
 10
270.0467058309
 20
14.838511548
 10
269.4256095477
 20
14.1890854393
 10
268.8386646706
 20
13.4765883675
 10
268.2941106192
 20
12.7110222297
 10
267.7995917387
 20
11.9031338964
 10
267.3620499901
 20
11.0642643489
 10
266.9876275005
 20
10.2061894767
 10
266.6815803409
 20
9.3409547702
 10
266.4482047426
 20
8.4807062279
 10
266.2907767874
 20
7.6375198538
 10
266.2115064187
 20
6.8232321363
 10
266.2115064187
 20
6.04927389
 10
266.2907767874
 20
5.326509792
 10
266.4482047426
 20
4.6650858661
 10
266.6815803409
 20
4.0742870543
 10
266.9876275005
 20
3.5624068768
 10
267.3620499901
 20
3.1366310094
 10
267.7995917387
 20
2.8029364118
 10
267.879005357
 20
2.7561843298
  0
LWPOLYLINE
  5
11F
330
1F
100
AcDbEntity
  8
0
  6
Continuous
 62
     1
370
    25
100
AcDbPolyline
 90
       29
 70
   128
 43
0.0
 10
247.8213167712
 20
-31.9365929752
 10
247.6399223012
 20
-31.8409696055
 10
247.1194717845
 20
-31.6537576111
 10
246.5527269643
 20
-31.5677754261
 10
245.9476436957
 20
-31.5842300522
 10
245.3127160212
 20
-31.7028905023
 10
244.6568569337
 20
-31.9220910438
 10
243.9892732571
 20
-32.2387545816
 10
243.3193364029
 20
-32.6484358539
 10
242.656450816
 20
-33.1453838335
 10
242.0099219569
 20
-33.7226224601
 10
241.3888256736
 20
-34.3720485689
 10
240.8018807966
 20
-35.0845456406
 10
240.2573267452
 20
-35.8501117784
 10
239.7628078646
 20
-36.6580001117
 10
239.3252661161
 20
-37.4968696593
 10
238.9508436265
 20
-38.3549445315
 10
238.6447964669
 20
-39.220179238
 10
238.4114208686
 20
-40.0804277802
 10
238.2539929134
 20
-40.9236141543
 10
238.1747225446
 20
-41.7379018718
 10
238.1747225446
 20
-42.5118601182
 10
238.2539929134
 20
-43.2346242161
 10
238.4114208686
 20
-43.896048142
 10
238.6447964669
 20
-44.4868469539
 10
238.9508436265
 20
-44.9987271313
 10
239.3252661161
 20
-45.4245029988
 10
239.7628078646
 20
-45.7581975964
 10
239.8422214829
 20
-45.8049496783
  0
ENDSEC
  0
SECTION
  2
OBJECTS
  0
DICTIONARY
  5
C
330
0
100
AcDbDictionary
281
     1
  3
ACAD_GROUP
350
D
  3
ACAD_LAYOUT
350
1A
  3
ACAD_MLINESTYLE
350
17
  3
ACAD_PLOTSETTINGS
350
19
  3
ACAD_PLOTSTYLENAME
350
E
  3
ACAD_SCALELIST
350
47
  3
DWGPROPS
350
120
  0
DICTIONARY
  5
D
102
{ACAD_REACTORS
330
C
102
}
330
C
100
AcDbDictionary
281
     1
  0
DICTIONARY
  5
1A
102
{ACAD_REACTORS
330
C
102
}
330
C
100
AcDbDictionary
281
     1
  3
Layout1
350
1E
  3
Layout2
350
26
  3
Model
350
22
  0
DICTIONARY
  5
17
102
{ACAD_REACTORS
330
C
102
}
330
C
100
AcDbDictionary
281
     1
  3
Standard
350
18
  0
DICTIONARY
  5
19
102
{ACAD_REACTORS
330
C
102
}
330
C
100
AcDbDictionary
281
     1
  0
ACDBDICTIONARYWDFLT
  5
E
102
{ACAD_REACTORS
330
C
102
}
330
C
100
AcDbDictionary
281
     1
  3
Normal
350
F
100
AcDbDictionaryWithDefault
340
F
  0
DICTIONARY
  5
47
102
{ACAD_REACTORS
330
C
102
}
330
C
100
AcDbDictionary
281
     1
  3
A0
350
48
  3
A1
350
49
  3
A2
350
4A
  3
A3
350
4B
  3
A4
350
4C
  3
A5
350
4D
  3
A6
350
4E
  3
A7
350
4F
  3
A8
350
50
  3
A9
350
51
  3
B0
350
52
  3
B1
350
53
  3
B2
350
54
  3
B3
350
55
  3
B4
350
56
  3
B5
350
57
  3
B6
350
58
  3
B7
350
59
  3
B8
350
5A
  3
B9
350
5B
  3
C0
350
5C
  3
C1
350
5D
  3
C2
350
5E
  3
C3
350
5F
  3
C4
350
60
  3
C5
350
61
  3
C6
350
62
  3
C7
350
63
  3
C8
350
64
  3
C9
350
65
  3
D0
350
66
  3
D1
350
67
  3
D2
350
68
  0
XRECORD
  5
120
102
{ACAD_REACTORS
330
C
102
}
330
C
100
AcDbXrecord
280
     1
  1
DWGPROPS COOKIE
  2

  3

  4

  6

  7

  8
b.kav
  9

300
=
301
=
302
=
303
=
304
=
305
=
306
=
307
=
308
=
309
=
 40
0.0
 41
2459741.463625197
 42
2459741.463626898
  1

 90
        0
  0
LAYOUT
  5
1E
102
{ACAD_REACTORS
330
1A
102
}
330
1A
100
AcDbPlotSettings
  1

  2
none_device
  4

  6

 40
0.0
 41
0.0
 42
0.0
 43
0.0
 44
0.0
 45
0.0
 46
0.0
 47
0.0
 48
0.0
 49
0.0
140
0.0
141
0.0
142
1.0
143
1.0
 70
   688
 72
     1
 73
     0
 74
     5
  7

 75
    16
147
1.0
148
0.0
149
0.0
100
AcDbLayout
  1
Layout1
 70
     1
 71
     1
 10
0.0
 20
0.0
 11
420.0
 21
297.0
 12
0.0
 22
0.0
 32
0.0
 14
1.0000000000E+20
 24
1.0000000000E+20
 34
1.0000000000E+20
 15
-1.0000000000E+20
 25
-1.0000000000E+20
 35
-1.0000000000E+20
146
0.0
 13
0.0
 23
0.0
 33
0.0
 16
1.0
 26
0.0
 36
0.0
 17
0.0
 27
1.0
 37
0.0
 76
     0
330
1B
  0
LAYOUT
  5
26
102
{ACAD_REACTORS
330
1A
102
}
330
1A
100
AcDbPlotSettings
  1

  2
none_device
  4

  6

 40
0.0
 41
0.0
 42
0.0
 43
0.0
 44
0.0
 45
0.0
 46
0.0
 47
0.0
 48
0.0
 49
0.0
140
0.0
141
0.0
142
1.0
143
1.0
 70
   688
 72
     1
 73
     0
 74
     5
  7

 75
    16
147
1.0
148
0.0
149
0.0
100
AcDbLayout
  1
Layout2
 70
     1
 71
     2
 10
0.0
 20
0.0
 11
0.0
 21
0.0
 12
0.0
 22
0.0
 32
0.0
 14
0.0
 24
0.0
 34
0.0
 15
0.0
 25
0.0
 35
0.0
146
0.0
 13
0.0
 23
0.0
 33
0.0
 16
1.0
 26
0.0
 36
0.0
 17
0.0
 27
1.0
 37
0.0
 76
     0
330
23
  0
LAYOUT
  5
22
102
{ACAD_REACTORS
330
1A
102
}
330
1A
100
AcDbPlotSettings
  1

  2
none_device
  4
Letter_(8.50_x_11.00_Inches)
  6

 40
6.35
 41
6.35
 42
6.35000508
 43
6.35000508
 44
215.9
 45
279.4
 46
0.0
 47
0.0
 48
0.0
 49
0.0
140
0.0
141
0.0
142
1.0
143
1.0
 70
  1712
 72
     1
 73
     0
 74
     0
  7

 75
     0
147
1.0
148
0.0
149
0.0
100
AcDbLayout
  1
Model
 70
     1
 71
     0
 10
0.0
 20
0.0
 11
279.4
 21
215.9
 12
0.0
 22
0.0
 32
0.0
 14
0.0
 24
0.0
 34
0.0
 15
279.4
 25
215.9
 35
0.0
146
0.0
 13
0.0
 23
0.0
 33
0.0
 16
1.0
 26
0.0
 36
0.0
 17
0.0
 27
1.0
 37
0.0
 76
     0
330
1F
331
29
  0
MLINESTYLE
  5
18
102
{ACAD_REACTORS
330
17
102
}
330
17
100
AcDbMlineStyle
  2
Standard
 70
     0
  3

 62
   256
 51
90.0
 52
90.0
 71
     2
 49
0.5
 62
   256
  6
BYLAYER
 49
-0.5
 62
   256
  6
BYLAYER
  0
ACDBPLACEHOLDER
  5
F
102
{ACAD_REACTORS
330
E
102
}
330
E
  0
SCALE
  5
48
102
{ACAD_REACTORS
330
47
102
}
330
47
100
AcDbScale
 70
     0
300
1:1
140
1.0
141
1.0
290
     1
  0
SCALE
  5
49
102
{ACAD_REACTORS
330
47
102
}
330
47
100
AcDbScale
 70
     0
300
1:2
140
1.0
141
2.0
290
     0
  0
SCALE
  5
4A
102
{ACAD_REACTORS
330
47
102
}
330
47
100
AcDbScale
 70
     0
300
1:4
140
1.0
141
4.0
290
     0
  0
SCALE
  5
4B
102
{ACAD_REACTORS
330
47
102
}
330
47
100
AcDbScale
 70
     0
300
1:5
140
1.0
141
5.0
290
     0
  0
SCALE
  5
4C
102
{ACAD_REACTORS
330
47
102
}
330
47
100
AcDbScale
 70
     0
300
1:8
140
1.0
141
8.0
290
     0
  0
SCALE
  5
4D
102
{ACAD_REACTORS
330
47
102
}
330
47
100
AcDbScale
 70
     0
300
1:10
140
1.0
141
10.0
290
     0
  0
SCALE
  5
4E
102
{ACAD_REACTORS
330
47
102
}
330
47
100
AcDbScale
 70
     0
300
1:16
140
1.0
141
16.0
290
     0
  0
SCALE
  5
4F
102
{ACAD_REACTORS
330
47
102
}
330
47
100
AcDbScale
 70
     0
300
1:20
140
1.0
141
20.0
290
     0
  0
SCALE
  5
50
102
{ACAD_REACTORS
330
47
102
}
330
47
100
AcDbScale
 70
     0
300
1:30
140
1.0
141
30.0
290
     0
  0
SCALE
  5
51
102
{ACAD_REACTORS
330
47
102
}
330
47
100
AcDbScale
 70
     0
300
1:40
140
1.0
141
40.0
290
     0
  0
SCALE
  5
52
102
{ACAD_REACTORS
330
47
102
}
330
47
100
AcDbScale
 70
     0
300
1:50
140
1.0
141
50.0
290
     0
  0
SCALE
  5
53
102
{ACAD_REACTORS
330
47
102
}
330
47
100
AcDbScale
 70
     0
300
1:100
140
1.0
141
100.0
290
     0
  0
SCALE
  5
54
102
{ACAD_REACTORS
330
47
102
}
330
47
100
AcDbScale
 70
     0
300
2:1
140
2.0
141
1.0
290
     0
  0
SCALE
  5
55
102
{ACAD_REACTORS
330
47
102
}
330
47
100
AcDbScale
 70
     0
300
4:1
140
4.0
141
1.0
290
     0
  0
SCALE
  5
56
102
{ACAD_REACTORS
330
47
102
}
330
47
100
AcDbScale
 70
     0
300
8:1
140
8.0
141
1.0
290
     0
  0
SCALE
  5
57
102
{ACAD_REACTORS
330
47
102
}
330
47
100
AcDbScale
 70
     0
300
10:1
140
10.0
141
1.0
290
     0
  0
SCALE
  5
58
102
{ACAD_REACTORS
330
47
102
}
330
47
100
AcDbScale
 70
     0
300
100:1
140
100.0
141
1.0
290
     0
  0
SCALE
  5
59
102
{ACAD_REACTORS
330
47
102
}
330
47
100
AcDbScale
 70
     0
300
1/128" = 1'-0"
140
0.0078125
141
12.0
290
     0
  0
SCALE
  5
5A
102
{ACAD_REACTORS
330
47
102
}
330
47
100
AcDbScale
 70
     0
300
1/64" = 1'-0"
140
0.015625
141
12.0
290
     0
  0
SCALE
  5
5B
102
{ACAD_REACTORS
330
47
102
}
330
47
100
AcDbScale
 70
     0
300
1/32" = 1'-0"
140
0.03125
141
12.0
290
     0
  0
SCALE
  5
5C
102
{ACAD_REACTORS
330
47
102
}
330
47
100
AcDbScale
 70
     0
300
1/16" = 1'-0"
140
0.0625
141
12.0
290
     0
  0
SCALE
  5
5D
102
{ACAD_REACTORS
330
47
102
}
330
47
100
AcDbScale
 70
     0
300
3/32" = 1'-0"
140
0.09375
141
12.0
290
     0
  0
SCALE
  5
5E
102
{ACAD_REACTORS
330
47
102
}
330
47
100
AcDbScale
 70
     0
300
1/8" = 1'-0"
140
0.125
141
12.0
290
     0
  0
SCALE
  5
5F
102
{ACAD_REACTORS
330
47
102
}
330
47
100
AcDbScale
 70
     0
300
3/16" = 1'-0"
140
0.1875
141
12.0
290
     0
  0
SCALE
  5
60
102
{ACAD_REACTORS
330
47
102
}
330
47
100
AcDbScale
 70
     0
300
1/4" = 1'-0"
140
0.25
141
12.0
290
     0
  0
SCALE
  5
61
102
{ACAD_REACTORS
330
47
102
}
330
47
100
AcDbScale
 70
     0
300
3/8" = 1'-0"
140
0.375
141
12.0
290
     0
  0
SCALE
  5
62
102
{ACAD_REACTORS
330
47
102
}
330
47
100
AcDbScale
 70
     0
300
1/2" = 1'-0"
140
0.5
141
12.0
290
     0
  0
SCALE
  5
63
102
{ACAD_REACTORS
330
47
102
}
330
47
100
AcDbScale
 70
     0
300
3/4" = 1'-0"
140
0.75
141
12.0
290
     0
  0
SCALE
  5
64
102
{ACAD_REACTORS
330
47
102
}
330
47
100
AcDbScale
 70
     0
300
1" = 1'-0"
140
1.0
141
12.0
290
     0
  0
SCALE
  5
65
102
{ACAD_REACTORS
330
47
102
}
330
47
100
AcDbScale
 70
     0
300
1-1/2" = 1'-0"
140
1.5
141
12.0
290
     0
  0
SCALE
  5
66
102
{ACAD_REACTORS
330
47
102
}
330
47
100
AcDbScale
 70
     0
300
3" = 1'-0"
140
3.0
141
12.0
290
     0
  0
SCALE
  5
67
102
{ACAD_REACTORS
330
47
102
}
330
47
100
AcDbScale
 70
     0
300
6" = 1'-0"
140
6.0
141
12.0
290
     0
  0
SCALE
  5
68
102
{ACAD_REACTORS
330
47
102
}
330
47
100
AcDbScale
 70
     0
300
1'-0" = 1'-0"
140
12.0
141
12.0
290
     0
  0
ENDSEC
  0
EOF
